Michael Jackson - Beat It Chords & Tabs

 

Beat It Chords & Tabs

Michael Jackson Chords & Tabs

Version: 1 Type: Bass Tab 0 ratings
1 star 2 stars 3 stars 4 stars 5 stars
comments

Beat It Bass Tab

Drop D Tuning

Intro Riff:
G--------------------------
D--------------------------
A--------------------------
D--5--5--3--3--5--5--0-----

Chorus Riff:
G------------------------------------------------------
D-----------4--1--3-------------------4--1--3----------
A--------------------4-4--4--------------------4-4-----
D--2--5--7-------------------2--5--7-------------------
[ Tab from: http://www.guitartabs.cc/tabs/m/michael_jackson/beat_it_btab.html ]
Verse Riff:
G----------------------------------------------------
D----------------------------------------------------
A--666---444---666---444---222---444---666---444-----
D----------------------------------------------------

Interlude Riff:
G----------------
D----------------
A--666---666-----
D----------------

Order of play:
Intro Riff x1
Chorus Riff x2
Verse Riff x2
Chorus Riff x3
Verse Riff x2
Chorus Riff x4
Interlude Riff x8
Verse Riff x2
Chorus Riff until song ends
Comments