Michael Jackson - Bad Chords & Tabs

 

Bad Chords & Tabs

Michael Jackson Chords & Tabs

Version: 2 Type: Bass Tab 0 ratings
1 star 2 stars 3 stars 4 stars 5 stars
comments

Bad Bass Tab

   
*: mute
h: hammer-on
p: pull-off

INTRO / VERSE
|-----------------------------------|
|-----------------------------------|
|-------5--6-7-------5--6-7---------|
|-5--8----------5-8-----------------|

PRE CHORUS
|-----------------------------------|------------|
|-----------------------------------|------------|
|----5--4-----5--4-----5--4---------|--5h6p5-----|
|-7--------7--------7--------0-0-0--|---------8--|
                              * * *
[ Tab from: http://www.guitartabs.cc/tabs/m/michael_jackson/bad_btab_ver_2.html ]
CHORUS
|-----------------------------------|-------------------------------|
|-----------------------------------|-------------------------------|
|-------5--6--7--------5--8--5--8---|-------5--6--7--------4--5h6p5-|
|-5--8-----------5--8---------------|-5--8-----------5--8-----------|

|-----------------------------------|-------------------------------|
|-----------------------------------|-------------------------------|
|-------5--6--7--------5--8--5--8---|-------5--6--7--------5--------|
|-5--8-----------5--8---------------|-5--8-----------5--8-----------|

Then just find out where the other verses, pre choruses and choruses are and you're 
Listen to the song for the rhythm. (:
- Paulina.
Any questions, just add my msn: x.imjustme.x@hotmail.com
Comments