Michael Boardman - Taken Chords & Tabs

 

Taken Chords & Tabs

Michael Boardman Chords & Tabs

Version: 1 Type: Tab 0 ratings
1 star 2 stars 3 stars 4 stars 5 stars
comments

Taken Tab

?Taken? By: Michael Boardman
Original Piece
?This song is for anyone who?s ever lost a loved one or anybody close to them?
-Michael Boardman

e:----------3----------2----------3------|
b: -------3----------3----------3--------|
g: -----3----------2----------3----------|
d: --------------0-----------------------|
a: --------------------------3-----------|
e: 3-------------------------------------|
[ Tab from: http://www.guitartabs.cc/tabs/m/michael_boardman/taken_tab.html ]
e:----------3----------2----------3---------3--------2---------3---------------|
b: -------3----------3----------3---------3--------3---------3-----------------|
g: -----3----------2----------3---------0--------2---------3-------------------|
d: --------------0------------------------------0------------------------------|
a: --------------------------3---------2------------------3--------------------|
e: 3---------------------------------------------------------------------------|

basically play this all of the way through the song?.you should be able to get how it goes?.email me at 
for a recording of it

Lyrics:
Chorus:You were
Taken from me
You were
Taken from your family
You were
Taken from all of those
Who
Who knew you and, who loved you and, who cared about you

You were my best friend and
Will be until my end
You will never ever know just
How I will miss you
I love you
Forever more

Chorus

Another life taken too soon
Taken from all of us he knew
He will always live on
In our memories and yours
Cause
Chorus
Comments