Michael Angelo - Speed Kills Chords & Tabs

 

Speed Kills Chords & Tabs

Michael Angelo Chords & Tabs

Version: 1 Type: Tab 0 ratings
1 star 2 stars 3 stars 4 stars 5 stars
comments

Speed Kills Tab

E---------------------------------------------------------------------------|
B--------15-----16--15hp1615--13---------13--18-13-15-13--11hp13------------|
G--12-15-----12-------------------15--14-------------------------14---------|
D---------------------------------------------------------------------------|
A---------------------------------------------------------------------------|
E---------------------------------------------------------------------------|
[ Tab from: http://www.guitartabs.cc/tabs/m/michael_angelo/speed_kills_tab.html ]
E---------------------------------------------------------------------------|
B-----------------------------------------------------15--13--11hp13--------|
G--12--14--15--12-15s17--15--14hp15--12-11----11--14-----------------14-----|
D------------------------------------------12-------------------------------|
A---------------------------------------------------------------------------|
E---------------------------------------------------------------------------|

E---------------------------------------------------------------------------|
B--------15-----16-15hp1615-13---------13--18-13--16-15-13-----13-----------|
G--12-15-----12----------------15---14----------------------15----15-14--12-|
D---------------------------------------------------------------------------|
A---------------------------------------------------------------------------|
E---------------------------------------------------------------------------|

E---------------------------------------------------------------------------|
B---------------------------------------------------------------------------|
G-12-14-15-12--15s17-15-14hp15-12-11v---------------------------------------|
D---------------------------------------------------------------------------|
A---------------------------------------------------------------------------|
E---------------------------------------------------------------------------|
Comments