Michael Angelo - Finish Line Chords & Tabs

 

Finish Line Chords & Tabs

Michael Angelo Chords & Tabs

Version: 1 Type: Tab 0 ratings
1 star 2 stars 3 stars 4 stars 5 stars
comments

Finish Line Tab

   
Artist - Michael Angelo
Song - The Finish Line

  Gtrs I, II
  H    E  E  E  E    +W            +H      +E   E  E  E
|--------------15-|-(15)--------|-(15)----(15)----------|
|--------15-17----|-------------|--------------17-15-17-|
|---------------5-|--(5)--------|--(5)-----(5)----------|
|---------5--7----|-------------|---------------7--5--7-|
|-----------------|-------------|-----------------------|
|-----------------|-------------|-----------------------|
|
| Gtrs III, IV
| H    E  E  E  E    +W            +H      +E   E  E  E
|--------------12-|-(12)--------|-(12)----(12)----------|
|--------12-13-13-|-(13)--------|-(13)----(13)-13-12-13-|
|--------12-14----|-------------|--------------14-12-14-|
|-----------------|-------------|-----------------------|
|-----------------|-------------|-----------------------|
|-----------------|-------------|-----------------------|


   +E   E  H.         +Q    +E   Q   E  E  E
|------------------|----------------------15---|
|-(17)-17-15-------|-(15)--(15)\----15-17------|
|------------------|-----------------------5---|
|--(7)--7--5-------|--(5)---(5)\-----5--7------|
|------------------|---------------------------|
|------------------|---------------------------|
|
|  +E   E  H.         +Q    +E   Q   E  E  E
|------------------|----------------------12---|
|-(13)-13-12-------|-(12)--(12)\----12-13-13---|
|-(14)-14-12-------|-(12)--(12)\----12-14------|
|------------------|---------------------------|
|------------------|---------------------------|
|------------------|---------------------------|


   +W            +E   E  S  S  E  E  E  E  E    +W            +W
|-(15)--------|-(15)-------------------------|-------------|---------|
|-------------|------15-17p15----15----------|-------------|---------|
|--(5)--------|--(5)----------17----17-16-14-|-(14)--------|-(14)----|
|-------------|-------5--7p=5-----5----------|-------------|---------|
|-------------|----------------7-----7--5--3-|--(3)--------|--(3)----|
|-------------|------------------------------|-------------|---------|
|
|  +W            +E   E  S  S  E  E  E  E  E    +W            +W
|-(12)--------|-(12)-------------------------|-------------|---------|
|-(13)--------|-(13)-12-13p12-10-12-13-12-10-|-(10)--------|-(10)----|
|-------------|------12-14p12----12----------|-------------|---------|
|-------------|---------------14----14-12-10-|-(10)--------|-(10)----|
|-------------|------------------------------|-------------|---------|
|-------------|------------------------------|-------------|---------|


  Gtr I
  q  q  E E E E    E E  q  q  E  S S   E  E E E +Q.    E
|-8--8--6-8-6---|----8---------------|-------------------|
|-------------9-|-10---10--9--9-10p9-|-8-10---8-(8)------|
|---------------|--------------------|----------------10-|
|---------------|--------------------|-------------------|
|---------------|--------------------|-------------------|
|---------------|--------------------|-------------------|


  a E E  E  E  +Q.   E    E E  E E  E E E  E
|----------------------|----8-10-8-11-8---11--|
|-----8-10-11-(11)---9h|=10-------------------|
|-8h9------------------|----------------------|
|----------------------|----------------------|
|----------------------|----------------------|
|----------------------|----------------------|


                  Gtrs I, II       Gtr I
                      |-3-|
   +Q   E E E E E E   E E E E E q   E E
|-(11)S=8-6-5-------|--------------10-8-|
|-------------8-6-7-|-8p7p5-----5-------|
|-----------------8-|-9p8p5-5-4-5-------|
|-------------------|-------7-5---------|
|-------------------|-------------------|
|-------------------|-------------------|


  q  E E E E E E   E E E E q  E E   Q.   E a a E E E E
|-7----7-6-5-----|----------------|------------5-3-----|
|------------6---|----------------|----------6-----5---|
|--------------7-|-4--------------|--------5---------5-|
|----------------|---7-6-5-4--4-4-|-3----3-------------|
|----------------|----------------|--------------------|
|----------------|----------------|--------------------|


  Gtrs I, IIGtr I
            PM------------------------
                        |-3--| |-3-|
  E E E E E E  a   Q    Q  Q Q Q Q Q
|---------------------|--------------|
|-----4-5---7-(7)s=8--|-7--8-7-6-7-6-|
|-7-5-4-5---8-(8)s=9--|-8--9-8-7-8-7-|
|-7-5-------6-(6)s=7--|-6--7-6-5-6-5-|
|-----------9-(9)s10--|-9-10-9-8-9-8-|
|---------------------|--------------|


 -----------|
  |-3-| |-3-|
  Q Q Q Q Q Q   H     H       +H     +E  E E E
|-------------|-------------|------------------|
|-5-6-5-4-3-4-|-5----(5)----|-(5)----(5)-------|
|-6-7-6-5-4-5-|-6----(6)----|-(6)----(6)-0-0-2-|
|-4-5-4-3-2-3-|-4-----4-----|-(4)----(4)-0-0-2-|
|-7-8-7-6-5-6-|-7----(7)----|-(7)----(7)-----0-|
|-------------|-------------|------------------|


                                   |-3-| |-3-|
  +W           +H     +E   E E E   E E E E E E E E E E
|------------|-------------------|---------------------|
|------------|-------------------|---------------------|
|-(2)--------|-(2)----(2)/---5-7-|-8p7p5h7p5---7---5-7-|
|-(2)--------|-(2)----(2)/-7-----|-----------7---7-----|
|-(0)--------|-(0)----(0)--------|---------------------|
|------------|-------------------|---------------------|


                |-3-|             |-3--|  |-3--|
  Q      E E Q  E E E    Q  E  E  E  E E  E E  E   Q   E E  E E  E E
|---------------------|-----8-10-11p10p8h10p8----|-8----------8-10-8--|
|---------------------|-10--------------------10-|----10-8-10---------|
|-5b5.5---------7h8h9-|--------------------------|--------------------|
|--------7-5-7--------|--------------------------|--------------------|
|---------------------|--------------------------|--------------------|
|---------------------|--------------------------|--------------------|


                                      Gtrs IGtr I III, IV
     |-3--| |-3--|  |-3--| |-3--|                   |-3-|
     E E  E E  E E  E E  E E  E E  4x  H     +E  E  E E E
||--11p8h10p8----8h11p8h10p8----8--||-12----(12)----------|
||o-----------10-------------10---o||-13---------8-10p8---|
||---------------------------------||-14----------------9-|
||---------------------------------||---------------------|
||o-------------------------------o||-12------------------|
||---------------------------------||---------------------|


  E E  a  E E E E E E   E E E E E E  a  E E
|---------------------|----------------------|
|-8-------------------|----------------------|
|---9-(9)s7-5-7-9-5---|-7---5----------------|
|-------------------7-|---7---7-5------------|
|---------------------|-----------7-(7)s5-3--|
|---------------------|----------------------|


        Gtrs I, II, III, IV             Gtr I
              |--3---|                    |-3-|
  E E E E    +E  +E  E E E   +H     +E  E E E E
|--------------------------|--------------------|
|-------7b8==(7)r(7)-5-5-5-|-(5)----(5)---------|
|-------7b9==(7)r(7)-5-5-5-|-(5)----(5)---------|
|----------------------7-7-|-(7)----(7)---------|
|-5---3-5b7==(5)r(5)-3-----|--------------------|
|---5------------------5-5-|-(5)----(5)-3h5p3p0-|


  PM---------|
                                 |-3-|
  q  q  q  E E   +E    E E E E E E E E
|--------------|------------------------|
|--------------|------------------------|
|--------------|------------------------|
|--------------|------------------------|
|-------3--5-5-|-(5)b6r5-3--------------|
|-3--5---------|-----------5---3h5p3p0--|


  PM-|                                  PM---------|         PM    PM
                  |-3-|         |-3-|
  q  q  E E E E   E E E E E E E E E E   q  q  q  E E   E   E E E E E E E
|---------------|---------------------|--------------|-------------------|
|---------------|---------------------|--------------|-------------------|
|---------------|-------5-------------|--------------|-------------------|
|-------------5-|-7p5h7---7-----------|--------------|-------------------|
|-------3-5-7---|---------------------|-------3--5-5-|-5b6r3-5-5-3-------|
|-3--5----------|-------------3h5p3p0-|-3--5---------|-------------5---5-|


                  PM                PM|
          |-3-|       |---3---|     |-3-|   |-3-|   |---3---|
  E E E E E E E E E   Q     Q Q     Q Q Q   Q Q Q   Q     Q Q
|-------------------|---------------------|-------------------|
|-------------------|---------------------|-------------------|
|---------------7---|-5b5.5---------------|-------------------|
|-------5-7p5-------|-------7-5b5.5-------|-------------------|
|-3-5-7-------7---7-|---------------7-6-5-|-3-5-5b7-3b3.5-----|
|-------------------|---------------------|---------------5-3-|


  ~
  H    +E  E S S E   +E  E E E +E    E E E
|------------------|-------------------------|
|------------------|-------------------------|
|------------------|-------5-7-(7)b9r5-------|
|----------------5-|-(5)-7-------------7-5---|
|----------5-6h7---|-------------------------|
|-5----(5)---------|-------------------------|


  E E E E E E E E   +H     +E  a E  a  E  E    +Q.   E E  a  E E E
|-----------------|--------------------------|---------------------|
|-----------------|-----------------------8--|-(8)-----------------|
|-5---7---5-------|--------------7-(7)s9-(9)-|-(9)---9-7-(7)s5-----|
|---7---7---7-5-7-|-(7)----(7)p5-------------|-----------------7-5-|
|-----------------|--------------------------|---------------------|
|-----------------|--------------------------|---------------------|


                  A7
  ~~~~~~~~~~~~~
  H.      +Q      W          H    H      H      H    a
|---------------|----------|-----------|-------------------|
|---------------|----------|-----------|-------------------|
|---------------|-2--------|-2----2----|-2-----------------|
|-7-------(7)\--|-2--------|-2----2----|-2----/12s===2\----|
|---------------|-0--------|-0----0----|-0-----------------|
|---------------|----------|-----------|-------------------|


 Boogie Theme
  |-3-| |-3-| |-3-| |-3-|   |-3-| |-3-| |-3-| |-3-|
  E E E E E E E E E E E E   E E E E E E E E E E E E
|-------------------------|-------------------------|
|-------------------------|-------------------------|
|-----------0-----0-------|-----------0-----0-----0-|
|-----2-4h5---4h5---2h4-0-|-----2-4h5---4h5---2h4---|
|-3h4---------------------|-3h4---------------------|
|-------------------------|-------------------------|


  |-3-| |-3-| |-3-| |-3-|   |-3-| |-3-| |-3-| |-3-|
  E E E E E E E E E E E E   E E E E E E E E E E E E
|-------------------------|----------------------------|
|-------------------------|----------------------------|
|-----------0-----0-----0-|-4-2-0----------------------|
|-----2-4h5---4h5---2h4---|-------4-2-0-----2-4-2-0----|
|-3h4---------------------|-------------3-4------------|
|-------------------------|----------------------------|


  |-3-| |-3-| |-3-| |-3-|   |-3-| |-3-| |-3-| |-3-|
  E E E E E E E E E E E E   E E E E E E E E E E E E
|-------------------------|-------------------------|
|-------------------------|-------------------------|
|-----------0-----0-----0-|-----------0-----0-----0-|
|-----2-4h5---4h5---2h4---|-----2-4h5---4h5---2h4---|
|-3h4---------------------|-3h4---------------------|
|-------------------------|-------------------------|


  |-3-| |-3-| |-3-| |-3-|   |-3-| |-3-| |-3-| |-3-|
  E E E E E E E E E E E E   E E E E E E E E E E E E
|-------------------------|----------------------------|
|-------------------------|----------------------------|
|-----------0-----0-----0-|-4-2-0----------------------|
|-----2-4h5---4h5---2h4---|-------4-2-0-----2-4-2-0----|
|-3h4---------------------|-------------3-4------------|
|-------------------------|----------------------------|


                         |-3-| |-3-| |-3-| |-3-|
    E     Q  Q  Q  E  3x E E E E E E E E E E E E
||--------------------||-7-3---------2-----------|
||o------------------o||-----3-----5---3---------|
||--------2--2--2--2--||-------4-0-------2-------|
||--------2--2--2--2--||-------------------4-----|
||o-3b3.5-0--0--0--0-o||---------------------5-0-|
||--------------------||-------------------------|


                                                   ~
                         |-3-| |-3-| |-3-| |-3-|              |--3--|
    E     Q  Q  Q  E     E E E E E E E E E E E E   H    +Q    E  E  E
||--------------------||-------------------------|-----------------17--|
||o------------------o||-------------------------|--------------18-----|
||--------2--2--2--2--||-5-2-------------------2-|-5----(5)S=19--------|
||--------2--2--2--2--||-----5-2-----------2-5---|---------------------|
||o-3b3.5-0--0--0--0-o||---------5-3---3-5-------|---------------------|
||--------------------||-------------5-----------|---------------------|


 Arpeggio Anthem
  $
  Dm                Am                  Gm                Dm
   |--3--|  |--3--|  |--3--|  |--3--|    |--3--|  |--3--|  |--3--|  |--3--|
   E  E  E  E  E  E  E  E  E  E  E  E    E  E  E  E  E  E  E  E  E  E  E  E
|-22p17----------17-20p17----------17-|-18p15----------15-17p13----------13-|
|-------18----18----------17----17----|-------15----15----------15----15----|
|----------19----------------17-------|----------15----------------14-------|
|-------------------------------------|-------------------------------------|
|-------------------------------------|-------------------------------------|
|-------------------------------------|-------------------------------------|


  E?7               Dm                  E?7
   |--3--|  |--3--|  |--3--|  |--3--|    |-3--|  |-3--|      |--3--|
   E  E  E  E  E  E  E  E  E  E  E  E    E E  E  E  E E  Q   E  E  E
|-15p12----------12-13p10----------10-|-12p9----------9-15--------17-|
|-------14----14----------10----10----|------11----11----------18----|
|----------15----------------10-------|---------12----------19-------|
|-------------------------------------|------------------------------|
|-------------------------------------|------------------------------|
|-------------------------------------|------------------------------|


  Dm                Am                  Gm                Dm
   |--3--|  |--3--|  |--3--|  |--3--|    |--3--|  |--3--|  |--3--|  |--3--|
   E  E  E  E  E  E  E  E  E  E  E  E    E  E  E  E  E  E  E  E  E  E  E  E
|-22p17----------17-20p17----------17-|-18p15----------15-17p13----------13-|
|-------18----18----------17----17----|-------15----15----------15----15----|
|----------19----------------17-------|----------15----------------14-------|
|-------------------------------------|-------------------------------------|
|-------------------------------------|-------------------------------------|
|-------------------------------------|-------------------------------------|


  E?7
   |--3--|      |--3--|
   E  E  E  Q   E  E  E  S  S  S  S    S  S  S  S  S  S  S  S  Q   +Q
|-15p12-----------------13-12-------|--------------------------------------|
|-------14--------14-15-------15-14-|--------------------------------------|
|----------15--15-------------------|-15-14-12-----------------------------|
|-----------------------------------|----------15-14-12-------12--(12)/----|
|-----------------------------------|-------------------15-13--------------|
|-----------------------------------|--------------------------------------|


  Dm                D7                  Gm                E?7
   |--3--|  |--3--|  |--3--|  |--3--|    |--3--|  |--3--|  |--3--|  |--3--|
   E  E  E  E  E  E  E  E  E  E  E  E    E  E  E  E  E  E  E  E  E  E  E  E
|-------17-22p17----------17-20p17----|-------15-18p15----------15-18p15----|
|----18----------18----19-------------|----15----------15----17----------17-|
|-19----------------19-------------17-|-15----------------18----------------|
|-------------------------------------|-------------------------------------|
|-------------------------------------|-------------------------------------|
|-------------------------------------|-------------------------------------|


  F                 B?7              E?7
   |--3--|  |--3--|  |--3--|          |--3--|  |--3--|  |--3--|
   E  E  E  E  E  E  E  E  E  E  E    E  E  E  E  E  E  E  E  E  Q
|-------13-17p13----------13-16-13-|-15p12---------------------------|
|----13----------13----15----------|-------14------------------------|
|-14----------------16-------------|----------15p12------------------|
|----------------------------------|----------------14---------------|
|----------------------------------|-------------------16p13---------|
|----------------------------------|-------------------------15p12---|


                                                            To Coda
  Dm                Am                  Gm                Dm
   |--3--|  |--3--|  |--3--|  |--3--|    |--3--|  |--3--|  |--3--|
   E  E  E  E  E  E  E  E  E  E  E  E    E  E  E  E  E  E  E  E  E  Q
|-22p17----------17-20p17----------17-|-18p15----------15-17p13--------|
|-------18----18----------17----17----|-------15----15----------15-----|
|----------19----------------17-------|----------15----------------14--|
|-------------------------------------|--------------------------------|
|-------------------------------------|--------------------------------|
|-------------------------------------|--------------------------------|


   S  S  S  S  S  S  S  S  S  S  S  S  S  S  S  S    S  S  S  S  S  S  S  S  H
|----------13-12----------------------------------|-------------------------------||
|----11-15-------15-14-11-------11----------------|-------------------------------||
|-14----------------------14-12----14-12-10-14-12-|-10-------12-10----------------||
|-------------------------------------------------|----14-12-------14-12-11-12----||
|-------------------------------------------------|-------------------------------||
|-------------------------------------------------|-------------------------------||


  C#m
   |--3--|  |--3--|  |---3----|  |---3----|
   E  E  E  E  E  E  E  S  S  E  E  E  S  S
|-------16-21p16----------16-19p16----------|
|----17----------17----17----------17----17-|
|-18----------------18----------------18----|
|-------------------------------------------|
|-------------------------------------------|
|-------------------------------------------|


   |--3--|  |---3----|  |---3----|  |--3--|
   E  E  E  S  S  E  E  E  S  S  E  E  E  E
|-16-21p16----------16-19p16----16-21p16----|
|----------17----17----------17----------17-|
|-------------18----------------------------|
|-------------------------------------------|
|-------------------------------------------|
|-------------------------------------------|


  G#m
   |3-|  |--3--|  |---3----|  |---3----|
   Q  E  E  E  E  S  S  E  E  E  S  S  E
|----16-19p16----------16-18p16----------|
|-------------16----16----------16----16-|
|-16-------------16----------------16----|
|----------------------------------------|
|----------------------------------------|
|----------------------------------------|


   |---3----|  |--3--|  |---3----|
   E  E  S  S  E  E  E  S  S  E  E  Q
|-16-21p16----------16-19p16----16-19---|
|----------16----16----------16---------|
|-------------16------------------------|
|---------------------------------------|
|---------------------------------------|
|---------------------------------------|


  E
   |--3--|  |--3--|  |--3--|  |--3--|    |--3--|  |--3--|  |--3--|  |--3--|
   E  E  E  E  E  E  E  E  E  E  E  E    E  E  E  E  E  E  E  E  E  E  E  E
|-------16-19p16----------16-18p16----|-------16-21p16----------16-19p16----|
|----17----------17----17----------17-|----17----------17----17----------17-|
|-16----------------16----------------|-16----------------16----------------|
|-------------------------------------|-------------------------------------|
|-------------------------------------|-------------------------------------|
|-------------------------------------|-------------------------------------|


                                                     D.S. al Coda
  B                                  F#
   |--3--|  |--3--|  |--3--|  |3-|    |--3--|  |--3--|      |--3--|
   E  E  E  E  E  E  E  E  E  Q  E    E  E  E  E  E  E  Q   E  E  E
|-------14-19p14----------14-19-14-|-18p14-----------------------17-|
|----16----------16----16----------|-------14----------14-----18----|
|-16----------------16-------------|----------15----15-----19-------|
|----------------------------------|-------------16-----------------|
|----------------------------------|--------------------------------|
|----------------------------------|--------------------------------|


  &
   S  S  S  S  S  S  S  S  S  S  S  S  S  S  S  S
|-------------13-12-------------------------------|
|----11-13-14-------14-13-------------------------|
|-14----------------------15-14-12-15-14-12-------|
|-------------------------------------------15-14-|
|-------------------------------------------------|
|-------------------------------------------------|


   S  S  S  S  S  S  S  S  S  S  S  S  S  S  S  S
|-------------------------------------------------|
|-------------------------------------------------|
|-12-------12-------------------------------------|
|----15-14----15-14-12-15-14-12-11-14-12-11----12-|
|-------------------------------------------13----|
|-------------------------------------------------|


   S  S  S  S  S  S  S  S  S  S  S  S  S  S  S  S
|-------------------------------------------------|
|-------------------------------------------------|
|-------------------------------------------------|
|-11-------11-------------------------------------|
|----13-12----13-12-10-13-12-10----12-10-------10-|
|-------------------------------13-------13-12----|


                          ~~
   S  S  S  S  S  S S  S  H
|------------------------------|
|------------------------------|
|------------------------------|
|------------------------------|
|------------------------------|
|-13-12-10-13-12-10-9-12-10----|


  $$
  Am             B?7             Am          B?7
   |-3--| |-3--|  |-3-|  |-3-|   |-3-| |-3-| |-3-| |-3-|
   E E  E E  E E  E E E  E E E   E E E E E E E E E E E E
|-12p8---------8-10p7--------7-|-8p5-------5-7p4-------4-|
|------10---10--------9----9---|-----5---5-------6---6---|
|---------9-------------10-----|-------5-----------7-----|
|------------------------------|-------------------------|
|------------------------------|-------------------------|
|------------------------------|-------------------------|
|
|  W                             W
|------------------------------|-------------------------|
|------------------------------|-------------------------|
|------------------------------|-------------------------|
|------------------------------|-------------------------|
|------------------------------|-------------------------|
|------------------------------|-------------------------|


  F#m               E?7
                                 2/4
  Gtrs I, II        Gtr I
   |--3--|  |--3--| |-3-| |-3-|   |-3-| |-3-|
   E  E  E  E  E  E E E E E E E   E E E E E E
|--5p=2-----------2-6p3-------3-|-9p6-------6--|
|-19p14--2-----2-14-----5---5---|-----8---8----|
|-------14--2-14----------6-----|-------9------|
|----------16-------------------|--------------|
|-------------------------------|--------------|
|-------------------------------|--------------|
|
| Gtrs III, IV
|  |--3--|  |--3--|
|  E  E  E  E  E  E H             H
|-21p17----------17-------------|--------------|
|-22p19-19----19-19-------------|--------------|
|-------18-18-18----------------|--------------|
|----------19-------------------|--------------|
|-------------------------------|--------------|
|-------------------------------|--------------|


  Dm                E?7               Bm           E?7
 4/4
   |--3--|  |--3--|  |-3--|  |-3--|    |-3-| |-3-| |-3-| |-3-|
   E  E  E  E  E  E  E E  E  E  E E    E E E E E E E E E E E E
|-13p10----------10-12p9----------9-|-10p7-------7-9p6-------6-|
|-------10----10---------11----11---|------7---7-------8---8---|
|----------10---------------12------|--------7-----------9-----|
|-----------------------------------|--------------------------|
|-----------------------------------|--------------------------|
|-----------------------------------|--------------------------|


  F           B?7
  |-3-| |-3-| |-3-| |-3-|     |-3-|  |-3-|   |--3--|  |--3--|
  E E E E E E E E E E E E     E E E  E E E   E  E  E  E  E  E
|-8p5-------4-7p4-------7/-|-10p7--------7/-13p10----------10---|
|-----6---6-------6---6----|------9----9----------12----12------|
|-------5-----------7------|--------10---------------13---------|
|--------------------------|------------------------------------|
|--------------------------|------------------------------------|
|--------------------------|------------------------------------|


  E?7
                                                         ~~
   |-3--|  |-3--|  |--3--|  |--3--|    |--3--|  |--3--|
   E E  E  E  E E  E  E  E  E  E  E    E  E  E  E  E  E  H
|-12p9----------9-15p12----------12-|-18p15----------15-21----|
|------11----11---------14----14----|-------17----17----------|
|---------12---------------15-------|----------18-------------|
|-----------------------------------|-------------------------|
|-----------------------------------|-------------------------|
|-----------------------------------|-------------------------|


                                          To Dbl. Coda
  G#m          Am           A#m          Bm             Cm           C#m          Dm
                                                       3/4
   |---3----|   |---3----|   |---3----|   |---3----|     |---3----|   |---3----|
   E   E    E   E   E    E   E   E    E   E   E    E     E   E    E   E   E    E   Q
|----------11--12-(12)-(12)----------13--14-(14)-(14)-|----------15--16-(16)-(16)-17---|
|-----12--(12)-----13--(13)-----14--(14)-----15--(15)-|-----16--(16)-----17--(17)-18---|
|-13-(13)-(13)----------14--15-(15)-(15)----------16--|-17-(17)-(17)----------18--19---|
|-----------------------------------------------------|--------------------------------|
|-----------------------------------------------------|--------------------------------|
|-----------------------------------------------------|--------------------------------|


  Em D#mDm C#mCm Bm  A#m          Am
 4/4
   PM------------|
   |--3--|  |-3--|
   Q  Q  Q  Q  Q Q   H    +E  E E E
|------------------|----------------|
|-12-11-10--9--8-7-|-6----(6)-------|
|-12-11-10--9--8-7-|-6----(6)-0-0-2-|
|-14-13-12-11-10-9-|-8----(8)-0-0-2-|
|------------------|--------------0-|
|------------------|----------------|


 Boogie Return
                   PM----------|
  +W           +E  E E E E E E E   H    +E  E E E   +H     +E  Q  E   +W
|------------|-------------------|----------------|-----------------|--------|
|------------|-------------------|----------------|-----------------|--------|
|-(2)--------|-(2)---------------|-2----(2)---0-2-|-(2)----(2)-2--2-|-(2)----|
|-(2)--------|-(2)---------------|-2----(2)-2-0-2-|-(2)----(2)-2--2-|-(2)----|
|-(0)--------|-(0)---------------|-0----(0)-----0-|-(0)----(0)-0--0-|-(0)----|
|------------|-----0-2-0-3-0-4-0-|----------------|-----------------|--------|


      Gtrs I, II, III, IV
           |-----3-----|  |--3--|
  +E   E  +E      +E   E  E  E  E  E  E
|-----10-(10)b11-(10)--8-10p=8-----8----|
|------7--(7)b8---(7)p=5--7p=5-10--5-10-|
|-(2)--7--(7)b8---(7)p=5--7p=5--5--5--5-|
|-(2)-17-(17)b19-(17)-14-17-14--7-14--7-|
|-(0)--------------------------19----19-|
|---------------------------------------|


                                         C5
                                       Gtr I
             |--3--|
   +Q.    E  E  E  E  E  E    +H.      E E
|---------------------8----|---------------|
|-(10)----8h10p=8-----5-10-|-(10)------0---|
|--(5)----4h=5p=4--9--5--5-|--(5)------0-5-|
|--(7)----5h=7p=5--7-17--7-|--(7)--------5-|
|-(19)---17h19p17--7----19-|-(19)--------3-|
|-----------------20-------|---------------|


                           D7sus4                              C5
              T      T     T            T       T       T
  +H     +E   E      E     E       +E   Q       Q       Q      E
|--------------------------------|-------------------------------|
|--------------------------------|--------------8(20)------------|
|-(5)----(5)--5(17)--------7(19)-|-(7)--7(19)---7(19)---7(19)--5-|
|-(5)----(5)-(5)-----5(17)-7(19)-|-(7)--7(19)-----------7(19)--5-|
|-(3)----(3)-(3)----(3)s===5-----|-(5)-(5)-----(5)-----(5)-----3-|
|--------------------------------|-------------------------------|


         D5 C5 Am               G
               Gtrs I, II, IGtr IV
                                   T
  +E  q  Q  Q   E    +H     +E  Q  E
|--------------20-|-(20)-----------------|
|--------------22-|-(22)-----------------|
|-(5)-5--7--5--21-|-(21)-----------------|
|-(5)-5--7--5---7-|--(7)----(7)-5--5(17)-|
|-(3)-3--5--3---7-|--(7)----(7)-5--5(17)-|
|---------------5-|--(5)----(5)-3--------|


                           D
      T      T      T      T
   E  Q      Q      Q      E
|--------------------------------|
|--------------------------7(19)-|
|--4---------4(16)---------7(19)-|
|-(5)-5(17)--5(17)--5(17)--------|
|-----5(17)---------5(17)--------|
|--------------------------------|


                            C5          D5     B5
      T      T      T
  +E  Q      Q      Q       E   +E  q   Q  q   E   +W
|-----------------------------|------------------|--------|
|-(7)-------------------------|------------------|--------|
|-(7)-7(19)--7(19)----------5-|-(5)-5\--7--7\--4-|-(4)----|
|-----7(19)--7(19)--7(19)\--5-|-(5)-5\--7--7\--4-|-(4)----|
|---------------------------3-|-(3)-3\--5--5\--2-|-(2)----|
|-----------------------------|------------------|--------|


 The Finish Line
  Q=208
  N.C.
  S S  S S  S  S S  S  S  S S  S  S S  S  S
|-------------------------------------------|
|-------------------------------------------|
|-------------------------------------------|
|----------------9-11-13-11-9---------------|
|--------8-10-12--------------12-10-8-10-12-|
|-7-9-11------------------------------------|


  S  S  S  S  S  S  S  S  E  E  E  E
|---------------------------13-15-17-|
|------------------12-14-16----------|
|---------10-12-14-------------------|
|-9-11-13----------------------------|
|------------------------------------|
|------------------------------------|


 3/4
   S  S  S  S  S  S  S  S  S  S  S  S
|-19-17-15----------17-15-13----------|
|----------19-17-15----------17-15-13-|
|-------------------------------------|
|-------------------------------------|
|-------------------------------------|
|-------------------------------------|


   S  S  S  S  S  S  S  S  S  S  S  S    S  S S  S  S S  S  S S  S  S S
|-15-13-11----------14-12-10----------|-13-11-9---------12-10-8---------|
|----------15-13-11----------14-12-10-|---------13-11-9---------12-10-8-|
|-------------------------------------|---------------------------------|
|-------------------------------------|---------------------------------|
|-------------------------------------|---------------------------------|
|-------------------------------------|---------------------------------|


                               9/8
   S S S  S S S  S S S  S S S   S S S S S S S S S S S S S S S S S S
|-11-9-7--------10-8-6--------|-9-7-5-------------------------------|
|--------11-9-7--------10-8-6-|-------9-7-5-------------------------|
|-----------------------------|-------------9-7-5-------------------|
|-----------------------------|-------------------9-7-5-------------|
|-----------------------------|-------------------------9-7-5-------|
|-----------------------------|-------------------------------9-7-5-|


                                              Q
 4/4           2/4               4/4
                PM--------------------------|
                                  |-3-| |-3-|
  Q  Q  Q  Q    S S S S S S S S   Q Q Q Q Q Q
|-------------|-----------------|-------------|
|-------------|-----------------|-------------|
|-------------|-----------------|-------------|
|-7--6--5--4--|-----------------|-7-6-5-4-4-3-|
|-------------|-8-7-6-5---------|-7-6-5-4-4-3-|
|-------------|---------9-8-7-6-|-5-4-3-2-2-1-|

[ Tab from: http://www.guitartabs.cc/tabs/m/michael_angelo/finish_line_tab.html ]
 =208(8=s8)
  E7
                           PM
                           |--3--|
  W          H     a   Q   E  E  E
|----------|-------------------------|
|----------|--------------------21---|
|----------|-7----(7)/-------21------|
|-2--------|--------------21---------|
|-2--------|-------------------------|
|-0--------|-------------------------|


   a  S  S  S  S  S  S  S  S  S  S  S  S   a   +S       a   S  S  S
|-19h22p19----------19h22p19----------19-(22)-(22)b24-(22)-19-------|
|----------21----21----------21----21-------------------------21----|
|-------------21----------------21-------------------------------21-|
|-------------------------------------------------------------------|
|-------------------------------------------------------------------|
|-------------------------------------------------------------------|


 6/4
                                        Gtrs I, II, III, Gtr I
            T          T                              ~~~
   |----5-----|                          |--3---|
   S  S  S  S S  S  S  T  T  T  T   Q    E  E   E     E  E E E
|---------------------------------------21p19p=17------------5-|
|----17h21h24pxh21p17h21p17h21p17\-------5p=4p==3----20--------|
|-21------------------------------------14p12p=11-----5--5h6---|
|----------------------------------12\---------------14--------|
|--------------------------------------------------------------|
|---------------------------------------\4-(4)-(4)b5-(4)-------|


  A7
 4/4
  E  H.       E   E  E  E  E E  E E E
|---------------|---10-10-10-9----7---|
|-8-10-------10-|-8------------10---8-|
|---------------|---------------------|
|---------------|---------------------|
|---------------|---------------------|
|---------------|---------------------|


               a  AbG
               Gtrs I, II, III,Gtr I
   |-3-|
   E E E E E E  E E E   +H     +E  E  E  E
|---------------9-8-7-|-(7)----------------|
|-10-8-7-------10-9-8-|-(8)-------------10-|
|--------9-7-6--6-5-4-|-(4)--------9s11----|
|---------------7-6-5-|-(5)----(5)---------|
|---------------------|--------------------|
|---------------------|--------------------|


  D7
                     ~~~~~
                               |--3--|
   +E  E  E  E      +H         E  E  E  E  E  E  E  E  E
|-----------12b14==(12)r----|-10h12p10-------------------|
|-(10)----------------------|----------13-12-10-12-13-13s|
|------9s11-----------------|----------------------------|
|---------------------------|----------------------------|
|---------------------------|----------------------------|
|---------------------------|----------------------------|


  A7
                                         ~~~~~~~~~~
               |--3--|
   E  E  E  E  E  E  E  E  E    E  E  E  H     +E
|----12-14-14h15p14p12-------|----12-14-17----(17)-|
|-14-------------------15-13s|=14------------------|
|----------------------------|---------------------|
|----------------------------|---------------------|
|----------------------------|---------------------|
|----------------------------|---------------------|


  E7                                     D7
                                                  Gtrs I, II,
                                           ~~~~~
   +E    E  E  E      +E   E  E  E        +H       E  E  Q
|-(17)\-12-14-14b16==(14)r12-14--------|----------12-14-12--|
|-------------------------------13b15==|=(13)r----13-15-13--|
|--------------------------------------|----------12-14-12--|
|--------------------------------------|----------10-12-10--|
|--------------------------------------|--------------------|
|--------------------------------------|--------------------|


  A7                        E7
  III, IV                           Gtr I
   ~~~                  ~~~~~~~~~~~~~~~~~
            |--3--|
   Q.    E  E  E  E  E  E    +H      +E   E  E  E
|-------------------------|----------------------------|
|-14----12-14p12----12----|-----------------13-15b17===|
|-14----12-14p12-14-12-13-|-(13)---------14------------|
|-14----12-14p12-14-12-14-|-(14)----(14)---------------|
|-12----10-12p10-14-10-14-|-(14)-----------------------|
|----------------12----12-|-(12)-----------------------|


  A7
   +E    E  E      E  E     E  E      E    E     E  E      E  E     E  E      E
|-------15-----------------15-----------|-------15-----------------15-----------|
|-(15)r----15pb16r13-15b17----15pb16r13-|-15b17----15pb16r13-15b17----15pb16r13-|
|---------------------------------------|---------------------------------------|
|---------------------------------------|---------------------------------------|
|---------------------------------------|---------------------------------------|
|---------------------------------------|---------------------------------------|


                                                       
   E       E    E       E    E       E    E       E    
|---------15-----------15-----------15-----------15---|
|-15b17==(15)r-15b17==(15)r-15b17==(15)r-15b17==(15)r-|
|-----------------------------------------------------|
|-----------------------------------------------------|
|-----------------------------------------------------|
|-----------------------------------------------------|

                            |----3----|         
   E       E    E       E    E      E  E  E  E   
|---------15-----------15-------------------14--|
|-15b17==(15)r-15b17==(15)r-15b17rp13----13-13--|
|-------------------------------------14--------|
|-----------------------------------------------|
|-----------------------------------------------|
|-----------------------------------------------|

  D7
    ~~~~~~~~~~~           ~~~~~
   +H      +E  E  E  E    H.         S  +S   S  +S
|-(14)----(14)---------|-12b14------10-(10)-12-(12)-|
|-(13)----(13)------10-|----------------------------|
|--------------7s11----|----------------------------|
|----------------------|----------------------------|
|----------------------|----------------------------|
|----------------------|----------------------------|


  A7
                                       Gtrs I, II, III, IGtr I
                    ~~~~~~~~
                                        |--3--|
   S  +S   S  +S   +H         a E  E    E  E  E  E  H     E
|------------------------------------|-19p17p15--------------|
|-10-(10)-12-(12)-(12)b14p===10------|-12p10p=8-19-17--------|
|-------------------------------9-11-|-12p11p=9-11--9----12s=|
|------------------------------------|-14p12p11-12-11--------|
|------------------------------------|----------14-12--------|
|------------------------------------|-----------------------|


  E7                  D7
                                   |--3--|
   E  E  E  H     E    E  E  E  E  S  S  S  E  E E
|-------16----------|------------------------------|
|----12----15-------|----10-12-13-12h13p12-10------|
|-13-------------10s|=11----------------------11-x-|
|-------------------|------------------------------|
|-------------------|------------------------------|
|-------------------|------------------------------|


  A7                           E7
   |--3--|  |--3--|
   E  E  E  E  E  E  Q  Q       E E E E +H
|-12-------11-------10--8b9--|-----------------|
|----11-------10-------------|-10-8------------|
|-------12-------11----------|------9-9-(9)----|
|----------------------------|-----------------|
|----------------------------|-----------------|
|----------------------------|-----------------|


  A7
   S  S  S  S  S  S  S  S  S  S  S  S  S  S  S  S    S  S  S  S  S  S  S  S  S  E  S  +Q
|-------------------------------------------------|----17-19-20----------19-20-22-22-(22)b24===|
|-------------------------------------------17-19-|-20----------19-20-22-----------------------|
|----16-17-19-17-16----------------16-17-19-------|--------------------------------------------|
|-19----------------19-17-16-17-19----------------|--------------------------------------------|
|-------------------------------------------------|--------------------------------------------|
|-------------------------------------------------|--------------------------------------------|


    ~~~~~~~~~~~~                 ~~~~~~
   +H      +E    E  E  E        +H        E   E  E  E
|-(22)----(22)r-20-22-20b21==|=(20)r\-------------------|
|----------------------------|--------------------------|
|----------------------------|-----------/x\----14------|
|----------------------------|-----------/x\-14----14---|
|----------------------------|--------------------------|
|----------------------------|--------------------------|


  Gtr I                                                                    Gtr
   ~~~~~                                                   ~~~~~~~~~~~~~
   H.                                     E     E       E  Q       +H      E
|----------------------------------------------------|-17-19b20===(19)r------|
|-13b15----------------------------------13----------|-13--------------------|
|----------------------------------------------14----|----12b14===(12)r----5s|
|----------------------------------------------------|-----------------------|
|----------------------------------------------------|-----------------------|
|----------------------------------------------------|-----------------------|
|
| Gtr II                                               Gtrs II, IV
|                                                          ~~~~~~~~~~~~~
|  S     S  S  S  S  S  S  S  S  S  S  S  S  S  S  S    E  Q       +H      E
|-22----20-17----------------17-20-22-20-17----------|-20--------------------|
|-------------22-20-17-20-22----------------22-20-17-|-17-20b22===(20)r------|
|----------------------------------------------------|----16b17===(16)r------|
|----------------------------------------------------|-----------------------|
|----------------------------------------------------|-----------------------|
|----------------------------------------------------|-----------------------|


  I
  |-3-| |-3--| |-3-| |-3-|   |-3-| |-3-| |-3-| |-3-|
  E E E E E  E E E E E E E   E E E E E E E E E E E E
|--------------8p7p5---5---|----------------------------|
|-------7h8h10-------8---8-|-7p5p4-5p4---4--------------|
|-7h8h9--------------------|-----------7---7p5-7---5----|
|--------------------------|---------------------7------|
|--------------------------|----------------------------|
|--------------------------|----------------------------|
|
| W                          W
|--------------------------|----------------------------|
|--------------------------|----------------------------|
|--------------------------|----------------------------|
|--------------------------|----------------------------|
|--------------------------|----------------------------|
|--------------------------|----------------------------|


  D7
                                       Gtrs
  ~~~~~~~~~
  H    +E  E  E E    E  E E  E E  E  E  E
|-----------------|------------8-10-12-10-|
|-----------------|-----5s7-10---------19-|
|-7----(7)--------|--5--------------------|
|----------0-/4-7p|=(0)-------------------|
|-----------------|-----------------------|
|-----------------|-----------------------|


  A7
  I, II
                                                  ~~~~~~~~~~~~
   +E        E  E  E      +E    E  E  E    E  Q   E      +H
|-(10)b10.5r11-12-----------------------|------------------------|
|-(19)b19.5r20-22-12b14==(12)r-12-10----|-10-10--12b14==(12)-----|
|-----------------19b21==(19)r-19-17-11-|-17-17--19b21==(19)r----|
|------------------------------------19-|------------------------|
|---------------------------------------|------------------------|
|---------------------------------------|------------------------|


  E7                        D7
  Gtr I
    ~~~~~
   +E    E  E  E E  E E E   E  E E Q  E  a E E
|------------------12-----|---10---8--8h10p8p7-|
|-(12)r-10-12-10-9----9-9s|=7----7-------------|
|-------------------------|--------------------|
|-------------------------|--------------------|
|-------------------------|--------------------|
|-------------------------|--------------------|


  A7                       E7
                                     ~~~
   E E S  S S S E E  E E    E E E E +H
|----7-------------------|-----------------|
|-10---8h10p8p7----------|----8------------|
|---------------9-7----7-|-/9---9-9-(9)----|
|-------------------10---|-----------------|
|------------------------|-----------------|
|------------------------|-----------------|


 Keyboard Solo
  A7
   ~~~
  +W           +Q   a  H.        W          H..       E
|------------|-----------------|----------|--------------|
|------------|-----------------|----------|-----------5--|
|-(9)--------|-(9)s=x\---------|----------|-----------5--|
|------------|-----------------|----------|--------------|
|------------|-----------------|----------|--------------|
|------------|-----------------|----------|--------------|


                                        ~~~~~~~~~~~~~~~~
  E E E E E E E E   +E  E E E +H       +W           +H.      +Q   a
|-----------------|------------------|------------|------------------|
|---5---5---5---5-|-(5)--------------|------------|------------------|
|---5---5---5---5-|-(5)-2h5-2-(2)----|-(2)--------|-(2)------(2)s=x--|
|-----------------|------------------|------------|------------------|
|-----------------|------------------|------------|------------------|
|-----------------|------------------|------------|------------------|


 Guitar Solo
  A7
   S  S  S  S  S  S  S  S  S  S  S  S  S  S  S  S
|-------------------------------------------------|
|-------------------------------------------------|
|-------------------------------------------------|
|-------------------------------------------------|
|----------14-17-15-14----14----------------14-15-|
|-14-15-17-------------17----17-15-14-15-17-------|


   S  S  S  S  S  S  S  S  S  S  S  S  S  S  S  S
|-------------------------------------------------|
|-------------------------------------------------|
|----------------------------------------------14-|
|----14-17-16-14----14----------------14-16-17----|
|-17-------------17----17-15-14-15-17-------------|
|-------------------------------------------------|


   S  S  S  S  S  S  S  S  S  S  S  S  S  S  S  S
|-------------------------------------------------|
|-------------------------------------------------|
|-17-16-14----14----------------14-16-17----------|
|----------17----17-16-14-16-17----------16-17-19-|
|-------------------------------------------------|
|-------------------------------------------------|


   |---------9:8---------|  |----------9:8----------|
   E   S  S  S  S  S  S  S  S  S  S  S  S  S  S  S  S
|-----------------17-19-20-19-17----------------17-19--|
|--------17-19-20----------------20-19-17-19-20--------|
|-----19-----------------------------------------------|
|-16\--------------------------------------------------|
|------------------------------------------------------|
|------------------------------------------------------|


  D7
   ~~~~~
   H.         S  S  S  S    S  S  S  S  S  S  S  S  S  S  S  S  a  S  S  S  S
|-20b22------------------|-------17-19-20-19-17----17-------------------------|
|---------------------17-|-19-20----------------22----20-19-17----17----------|
|------------17-19-20----|-------------------------------------21----20-19-17-|
|------------------------|----------------------------------------------------|
|------------------------|----------------------------------------------------|
|------------------------|----------------------------------------------------|


  A7
                                       |-----5-----|
   S  S  S  S  S  S  S  S  S  S  S  S  S  S  S  S  S
|----------------17-20-19-17----------------17-19-20-|
|-------17-19-20-------------20-19-17-19-20----------|
|-19-20----------------------------------------------|
|----------------------------------------------------|
|----------------------------------------------------|
|----------------------------------------------------|


                         ~~~~~~~~~
   |-----5-----|
   S  S  S  S  S  E  E  +H
|----------19-20-22-22-(22)b24.5----|
|-19-20-22--------------------------|
|-----------------------------------|
|-----------------------------------|
|-----------------------------------|
|-----------------------------------|


  E7                         D7
    ~~~~~~~~~~
   +H.             +E    E    E  E  E  E  E  E  E  E
|-(22)pb24.5------(22)rp20-|-22-22-20----22----20----|
|--------------------------|----------22----22----22-|
|--------------------------|-------------------------|
|--------------------------|-------------------------|
|--------------------------|-------------------------|
|--------------------------|-------------------------|


  A7                             E7
                                               ~~~~~
           |--3--|
   +E   E  E  E  E  E  E  E  E    E  E  E  E  +H
|------------------------------|----------------------|
|-(22)-20-22p20----20----------|-20-------------------|
|---------------21----21-19-21-|----21-19-21-(21)\----|
|------------------------------|----------------------|
|------------------------------|----------------------|
|------------------------------|----------------------|


  A7
   S  S  S  S  S  S  S  S  S  S  S  S  S  S  S  S
|-------------------------------------------------|
|-------------------17-19-20-19-17----------------|
|----------16-17-19----------------19-17-16-------|
|-16-17-19----------------------------------19-17-|
|-------------------------------------------------|
|-------------------------------------------------|


   S  S  S  S  S  S  S  S  S  S  S  S  S  S  S  S
|----------------------19-20-19-17----------------|
|-------------------17-------------20-19-17-------|
|----------16-17-19-------------------------19-17-|
|-16-17-19----------------------------------------|
|-------------------------------------------------|
|-------------------------------------------------|


   S  S  S  S  S  S  S  S  S  S  S  S  S  S  S  S
|----------------------------------------------17-|
|----------------------------------16-17-19-20----|
|-16----------------16-17-19-17-19----------------|
|----19-17-16-17-19-------------------------------|
|-------------------------------------------------|
|-------------------------------------------------|


   S  S  S  S  S  S  S  S  S  S  S  S  S  S  S  S
|-20-19-17----------------17-19-20----------19-20-|
|----------20-19-17-19-20----------19-20-22-------|
|-------------------------------------------------|
|-------------------------------------------------|
|-------------------------------------------------|
|-------------------------------------------------|


          ~~~~~~~~~
   E  E  +H           S  S  S  S
|-22-22-(22)b24.5----22-20-19----|
|-----------------------------22-|
|--------------------------------|
|--------------------------------|
|--------------------------------|
|--------------------------------|


   |----------9:8----------|  |----------9:8----------|
   S  S  S  S  S  S  S  S  S  S  S  S  S  S  S  S  S  S
|-------20-19-17----------------------------------------|
|-20-19-------------------20-19-17----------------------|
|----------------19-17-16-------------------19-17-16----|
|----------------------------------19-17-16-------------|
|----------------------------------------------------17-|
|-------------------------------------------------------|


   S  S  S  S  S  S  S  S  S  S  S  S  S  S  S  S
|-------------------------------------------------|
|-------------------------------------------------|
|-------------------------------------------------|
|-------17-16-14----14----------------------------|
|-15-14----------17----17-15-14----14-------------|
|-------------------------------17----17-15-14-15-|


   S  S  S  S  S  S  S  S  S  S  S  S  S  S  S  S
|-------------------------------------------------|
|-------------------------------------------------|
|----------------------14-16-17----------16-------|
|-------------14-16-17----------16-17-19----19-17-|
|----14-15-17-------------------------------------|
|-17----------------------------------------------|


   |----------9:8----------|
   S  S  S  S  S  S  S  S  S  S  S  S  S  S  S  S  S
|----------------------------------------------------|
|-------------------------------------------17-------|
|----------16-------------16-17-19-17-19-20----20-19-|
|-16-17-19----19-17-16-17----------------------------|
|----------------------------------------------------|
|----------------------------------------------------|


   S  S  S  S  S  S  S  S  S  S  S  S  S  S  S  S
|--------------------------------------------------|
|----------17----------------17----------------17--|
|-18-19-20----20-19-18-19-20----20-19-18-19-20-----|
|--------------------------------------------------|
|--------------------------------------------------|
|--------------------------------------------------|


                                                  D.S.S. al Dbl. Coda
                                  5/4
                ~~~~~~~~~                           ~~~~~~~
                                    |--3--|
   S  S  S  S  +H           E  E    E  E  E  E  E  +H         a   Q  a
|-------17-20-(20)b22.5----20-17-|-20p17----17-------------------------|
|-19-20--------------------------|-------20----20-(20)b22----(x)\-4s=x-|
|--------------------------------|-------------------------------------|
|--------------------------------|-------------------------------------|
|--------------------------------|-------------------------------------|
|--------------------------------|-------------------------------------|


 Arpeggio Anthem Return
  &&
  Cm           C#m          Dm                           Am
 3/4                                  4/4
   |---3----|   |---3----|   |--3--|    |--3--|  |--3--|  |--3--|  |--3--|
   E   E    E   E   E    E   E  E  E    E  E  E  E  E  E  E  E  E  E  E  E
|----------15--16-(16)-(16)-------17-|-22p17----------17-20p17----------17-|
|-----16--(16)-----17--(17)----18----|-------18----18----------17----17----|
|-17-(17)-(17)----------18--19-------|----------19----------------17-------|
|------------------------------------|-------------------------------------|
|------------------------------------|-------------------------------------|
|------------------------------------|-------------------------------------|


  Gm                Dm                  E?7               Dm                 
   |--3--|  |--3--|  |--3--|  |--3--|    |--3--|  |--3--|  |--3--|  |--3--|  
   E  E  E  E  E  E  E  E  E  E  E  E    E  E  E  E  E  E  E  E  E  E  E  E  
|-18p15----------15-17p13----------13-|-15p12----------12-13p10----------10-|
|-------15----15----------15----15----|-------14----14----------10----10----|
|----------15----------------14-------|----------15----------------10-------|
|-------------------------------------|-------------------------------------|
|-------------------------------------|-------------------------------------|
|-------------------------------------|-------------------------------------|


  E?7                 Dm         
   |-3--|  |-3--|      |--3--|   
   E E  E  E  E E  Q   E  E  E   
|-12p9----------9-15--------17--|
|------11----11----------18-----|
|---------12----------19--------|
|-------------------------------|
|-------------------------------|
|-------------------------------|

                    Am                  Gm                Dm
   |--3--|  |--3--|  |--3--|  |--3--|    |--3--|  |--3--|  |--3--|  |--3--|
   E  E  E  E  E  E  E  E  E  E  E  E    E  E  E  E  E  E  E  E  E  E  E  E
|-22-------------17-20p17----------17-|-18p15----------15-17p13----------13-|
|-------18----18----------17----17----|-------15----15----------15----15----|
|----19----19----------------17-------|----------15----------------14-------|
|-------------------------------------|-------------------------------------|
|-------------------------------------|-------------------------------------|
|-------------------------------------|-------------------------------------|


  E?7                                                         Dm
   |--3--|      |--3--|
   E  E  E  Q   E  E  E  S  S  S  S    S  S  S  S  S  S  S  S  Q   +Q
|-15p12-----------------13-12-------|--------------------------------------|
|-------14--------14-15-------15-14-|--------------------------------------|
|----------15--15-------------------|-15-14-12-----------------------------|
|-----------------------------------|----------15-14-12-------12--(12)/----|
|-----------------------------------|-------------------15-13--------------|
|-----------------------------------|--------------------------------------|


                    D7                  Gm                E?7
   |--3--|  |--3--|  |--3--|  |--3--|    |--3--|  |--3--|  |--3--|  |--3--|
   E  E  E  E  E  E  E  E  E  E  E  E    E  E  E  E  E  E  E  E  E  E  E  E
|-------17-22p17----------17-20p17----|-------15-18p15----------15-18p15----|
|----18----------18----19-------------|----15----------15----17----------17-|
|-19----------------19-------------17-|-15----------------18----------------|
|-------------------------------------|-------------------------------------|
|-------------------------------------|-------------------------------------|
|-------------------------------------|-------------------------------------|
|
|  W                                     W
|-------------------------------------|-------------------------------------|
|-------------------------------------|-------------------------------------|
|-------------------------------------|-------------------------------------|
|-------------------------------------|-------------------------------------|
|-------------------------------------|-------------------------------------|
|-------------------------------------|-------------------------------------|


  F                 B?7              E?7
                                     Gtrs I, II
   |--3--|  |--3--|  |--3--|          |--3--|  |--3--|  |--3--|
   E  E  E  E  E  E  E  E  E  E  E    E  E  E  E  E  E  E  E  E  Q
|-------13-17p13----------13-16-13-|-15p12---------------------------|
|----13----------13----15----------|-17p14-14p11---------------------|
|-14----------------16-------------|-------15p12-12p=9---------------|
|----------------------------------|-------------14p11-11p=8---------|
|----------------------------------|-------------------13p10-10p=7---|
|----------------------------------|-------------------------12p=9---|
|
|                                    Gtrs III, IV
|                                     |--3--|  |--3--|  |--3--|
|  W                                  E  E  E  E  E  E  E  E  E  Q
|----------------------------------|-21p18---------------------------|
|----------------------------------|-23p20-20p17---------------------|
|----------------------------------|-------21p18-18p15---------------|
|----------------------------------|-------------20p17-17p14---------|
|----------------------------------|-------------------19p16-16p13---|
|----------------------------------|-------------------------18p15---|


  Dm                Am                  Gm                Dm
  Gtr I
   |--3--|  |--3--|  |--3--|  |--3--|    |--3--|  |--3--|  |--3--|
   E  E  E  E  E  E  E  E  E  E  E  E    E  E  E  E  E  E  E  E  E  Q
|-22p17----------17-20p17----------17-|-18p15----------15-17p13--------|
|-------18----18----------17----17----|-------15----15----------15-----|
|----------19----------------17-------|----------15----------------14--|
|-------------------------------------|--------------------------------|
|-------------------------------------|--------------------------------|
|-------------------------------------|--------------------------------|


                                                                                  |--3--|
   S  S  S  S  S  S  S  S  S  S  S  S  S  S  S  S    S  S  S  S  S  S  S  S  Q    E  E  E
|----------13-12----------------------------------|------------------------------------17----|
|----11-15-------15-14-11-------11----------------|---------------------------------18-------|
|-14----------------------14-12----14-12-10-14-12-|-10-------12-10---------------19----------|
|-------------------------------------------------|----14-12-------14-12-11-12/--------------|
|-------------------------------------------------|------------------------------------------|
|-------------------------------------------------|------------------------------------------|


  Dm                Am                  Gm                Dm
                                                          Gtrs I, II
   |--3--|  |--3--|  |--3--|  |--3--|    |--3--|  |--3--|  |--3--|
   E  E  E  E  E  E  E  E  E  E  E  E    E  E  E  E  E  E  E  E  E  Q
|-22p17----------17-20p17----------17-|-18p15----------15-17p13--------|
|-------18----18----------17----17----|-------15----15----18p15-15-----|
|----------19----------------17-------|----------15-------------14-14--|
|-------------------------------------|----------------------------15--|
|-------------------------------------|--------------------------------|
|-------------------------------------|--------------------------------|
|
|                                                         Gtrs III, IV
|                                                          |--3--|
|  W                                     H                 E  E  E  Q
|-------------------------------------|-------------------22p17--------|
|-------------------------------------|-------------------15p10-18-----|
|-------------------------------------|-------------------------10-19--|
|-------------------------------------|----------------------------12--|
|-------------------------------------|--------------------------------|
|-------------------------------------|--------------------------------|


  Gtr I
   S  S  S  S  S  S  S  S  S  S  S  S  S  S  S  S    S  S  S  S  S  S  S  S  S  S  S  S  S  S  S  S
|-------------13-12-------------------------------|--------------------------------------------------|
|----11-13-14-------14-13-------------------------|--------------------------------------------------|
|-14----------------------15-14-12-15-14-12-------|-12-------12--------------------------------------|
|-------------------------------------------15-14-|----15-14----15-14-12-15-14-12-11-14-12-11----12--|
|-------------------------------------------------|-------------------------------------------13-----|
|-------------------------------------------------|--------------------------------------------------|
|
|  W                                                 W
|-------------------------------------------------|--------------------------------------------------|
|-------------------------------------------------|--------------------------------------------------|
|-------------------------------------------------|--------------------------------------------------|
|-------------------------------------------------|--------------------------------------------------|
|-------------------------------------------------|--------------------------------------------------|
|-------------------------------------------------|--------------------------------------------------|


   S  S  S  S  S  S  S  S  S  S  S  S  S  S  S  S
|-------------------------------------------------|
|-------------------------------------------------|
|-------------------------------------------------|
|-11-------11-------------------------------------|
|----13-12----13-12-10-13-12-10----12-10-------10-|
|-------------------------------13-------13-12----|


                          ~~~
   S  S  S  S  S  S S  S  H
|-------------------------------||
|-------------------------------||
|-------------------------------||
|-------------------------------||
|-------------------------------||
|-13-12-10-13-12-10-9-12-10\----||


 Outro
  Q=156
  E
                                          ~~~~
                         |--3--|
  H.      +Q      S   S  S  S  S  S  E.  +Q    +S   S  S  S
|---------------|----------------16-19--(19)--(19)-17-19-------|
|---------------|-------------17-------------------------19b21-|
|---------------|-x/-------16----------------------------------|
|-2-------(2)/--|-x/----18-------------------------------------|
|-2-------(2)/--|----19----------------------------------------|
|-0-------(0)/--|----------------------------------------------|


    ~~~~
           |------6-------|  |------6-------|
   +H      S  S  S  S  S  S  S  S  S  S  S  S
|---------------16-19-17-16----------17-16-14-|
|-(19)----17-19-------------19-17-16----------|
|---------------------------------------------|
|---------------------------------------------|
|---------------------------------------------|
|---------------------------------------------|


   |------6-------|  |------6-------|  |------6-------|  |------6-------|
   S  S  S  S  S  S  S  S  S  S  S  S  S  S  S  S  S  S  S  S  S  S  S  S
|-------------------------------------------------------------------------|
|-17-16-14----------------------------------------------------------------|
|----------16-14-13----------14-13-11-13-11-------------------------------|
|-------------------16-14-13----------------14-11-13-11----11-------------|
|-------------------------------------------------------14----14-12-14-12-|
|-------------------------------------------------------------------------|


   |------6-------|  |------6-------|  |------6-------|  |------6-------|
   S  S  S  S  S  S  S  S  S  S  S  S  S  S  S  S  S  S  S  S  S  S  S  S
|--------------------------------------------------------------------------|
|--------------------------------------------------------------------------|
|----------------------------------------------11-13-14----------13-14-16--|
|-------------------------------------11-13-14----------13-14-16-----------|
|-14-12-11-------------------11-12-14--------------------------------------|
|----------14-12-11-12-11-14-----------------------------------------------|


   |------6-------|              |-----5-----|  |3-|  |3-|
   S  S  S  S  S  S  S  S  S  S  S  S  S  S  S  E  S  E  S
|----------14-16-17-19p17p14h16p14h16p14h16p14-------------|
|-14-16-17-------------------------------------17h19p16h17s|
|----------------------------------------------------------|
|----------------------------------------------------------|
|----------------------------------------------------------|
|----------------------------------------------------------|


                                                           ~~
                          |------7-------|  |------6-------|
   S  S  S  S S  S  S  S  E  S  S  S  S  S  S  S  S  S  S  S
|-------------------------------------------------------------|
|-14p12p10h12s9-----------------------------------------------|
|---------------11h13p11--------------------------------------|
|------------------------13-11-13-11----------------------14--|
|------------------------------------14-12-11-12-11-----------|
|---------------------------------------------------14-12-----|


                              Rush Q=208
                                D5
                                Gtrs I, II, III, IV
    ~~~~~~~~~~~~~~~~~
   +W            +H.      Q      E  E +Q    H
|-------------|---------------|-10-10------------*|
|-------------|---------------|-10-10------------*|
|-------------|---------------|--7--7-(7)\-------*|
|-(14)--------|-(14)------x\--|--7--7-(7)\-------*|
|-------------|-----------x\--|--5--5-(5)\-------*|
|-------------|-----------x\--|------------------*|
Comments