Micah P Hinson - Dont You Chords & Tabs

 

Dont You Chords & Tabs

Micah P Hinson Chords & Tabs

Version: 1 Type: Tab 0 ratings
1 star 2 stars 3 stars 4 stars 5 stars
comments

Dont You Tab

Artist: MICAH P HINSON 
Song: "Don't you (part I & II)"
Album: Micah P Hinson and the Gospel of Progress
Year: 2004
Tabbed by: Antonio González Artime (patxungo83@hotmail.com)
-----------------------------------------------------------------------------------

PART 1:
--------------------------------------------------------->
--------------------------------------------------------->
---1-----1------1-----1------2-----2-----2-----2--------->
------2------------2------------2-----------2------------>
--------------------------------------------------------->
-0-----------0------------2-----------2------------------>

--------------------------------------------------------->
--------------------------------------------------------->
---1-----1------1-----1---------------------------------->
------2------------2---------1---1--------1---1---------->
-------------------------------2------------2------------>
-0-----------0------------2-----------2------------------>



PART 2:
--------------------------------------------------------->
--------------------------------------------------------->
---1-----1------1-----1------2-----2-----2-----2--------->
------2------------2------------2-----------2------------>
--------------------------------------------------------->
-0-----------0------------2-----------2------------------>


--------------------------------------------------------->
--------------------------------------------------------->
---1-----1------1-----1------2-----2-----2-----2--------->
------2------------2------------2-----------2------------>
--------------------------------------------------------->
-0-----------0------------2-----------2------------------>

PART 3:
--------------------------------------------------------->
--------------------------------------------------------->
---1-----1------1-----1------2-----2-----2-----2--------->
------2------------2------------2-----------2------------>
--------------------------------------------------------->
-0-----------0------------2-----------2------------------>


--------------------------------------------------------->
--------------------------------------------------------->
---4-----4------4-----4------6-----6-----6-----6--------->
------2------------2------------4-----------4------------>
--------------------------------------------------------->
-4-----------4------------5-----------5------------------>

PART 4:

--------------------------------------------------------->
--------------------------------------------------------->
---4-----4------4-----4------6-----6-----6-----6--------->
------2------------2------------4-----------4------------>
--------------------------------------------------------->
-4-----------4------------5-----------5------------------>


--------------------------------------------------------->
--------------------------------------------------------->
---1-----1------1-----1------2-----2-----2-----2--------->
------2------------2------------2-----------2------------>
--------------------------------------------------------->
-0-----------0------------2-----------2------------------>





PART 1 x2
PART 2 x2
PART 1
PART 3 x2

PART 1 x2
PART 2 x2
PART 1 
(entran batería + piano)
PART 3 x2
(entra otro piano)
PART 4 x2
Se queda en 0x121xx

<--------->
[ Tab from: http://www.guitartabs.cc/tabs/m/micah_p_hinson/dont_you_tab.html ]
---------|---------|---------|---------|---------|---------|---------|---------->
---------|---------|---------|---------|---------|---------|---------|---------->
---------|---------|---------|---------|---------|---------|---------|---------->
---------|---------|---------|---------|---------|---------|---------|---------->
---------|---------|---------|---------|---------|---------|---------|---------->
-0-0-0-0-|-0-0-0-0-|-0-0-0-0-|-7-7-7-7-|\2-2-2-2-|-2-2-2-2-|-2-2-2-2-|/5-5-5-5-->

---------|---------|---------|---------|---------|---------|---------|---------->
---------|---------|---------|---------|---------|---------|---------|---------->
---------|---------|---------|---------|---------|---------|---------|---------->
---------|---------|---------|---------|---------|---------|---------|---------->
---------|---------|---------|---------|---------|---------|---------|---------->
-0-0-0-0-|-0-0-0-0-|-0-0-0-0-|-7-7-7-7-|\2-2-2-2-|-2-2-2-2-|/7-7-7-7-|-7-7-7-7-->

Empiezan a tocarse, a la vez:

x22100
x44200
x22100
x24400 ¿?¿?


Se suma:
------------------|------------|----------------|--------------->
------------------|------------|----------------|--------------->
------------------|------------|----------------|--------------->
--7-6--4-6-4---2--|-7-6--4-6-4-|-7-6--4-6-4---2-|-6-4--2-4-2-1-->   x 2
------------------|------------|----------------|--------------->
------------------|------------|----------------|--------------->

Se suma batería y:

------------------------------------|------------------------------------->
----------------------------0-0-0-0-|----------------------------2-2-2-2-->
-1-1-1-1--1-1-1-1-------------------|-2-2-2-2--2-2-2-2-------------------->
-------------------2-2-2-2----------|-------------------4-4-4-4----------->
------------------------------------|------------------------------------->
------------------------------------|------------------------------------->


------------------------------------|-------------------------------------->
-0-0-0-0--0-0-0-0-----------4-4-4-4-|-2-2-2-2--2-2-2-2--4-4-4-4--4-4-4-4--->
-------------------1-1-1-1----------|-------------------------------------->  x 3 CRESCENDO
------------------------------------|-------------------------------------->
------------------------------------|-------------------------------------->
------------------------------------|-------------------------------------->


Don't you.... don't youuu.... (sigue sonando todo y se suma:


-7-7-7-7--7-7-7-7--7-7-7-7--7-7-7-7-|-9--9--9--9----9--9--9--9----9--9--9--9----9--9--9--9---->
-9-9-9-9--9-9-9-9--9-9-9-9--9-9-9-9-|-10-10-10-10---10-10-10-10---10-10-10-10---10-10-10-10--->
------------------------------------|--------------------------------------------------------->
------------------------------------|--------------------------------------------------------->
------------------------------------|--------------------------------------------------------->
------------------------------------|--------------------------------------------------------->


-12-12-12-12--12-12-12-12--12-12-12-12--12-12-12-12-|-11-11-11-11--11-11-11-11--11-11-11-11--11-11-11-11--->
-14-14-14-14--14-14-14-14--14-14-14-14--14-14-14-14-|-12-12-12-12--12-12-12-12--12-12-12-12--12-12-12-12--->
----------------------------------------------------|------------------------------------------------------>  
----------------------------------------------------|------------------------------------------------------>
----------------------------------------------------|------------------------------------------------------>
----------------------------------------------------|------------------------------------------------------>

Se suma:

Solo + distorsión x2 y fín.
Comments