Miami Horror - I Look To You Chords & Tabs

 

I Look To You Chords & Tabs

Miami Horror Chords & Tabs

Version: 1 Type: Bass Tab

I Look To You Bass Tab

-------------------------------------------------------------------------------
			     I LOOK TO YOU - Miami Horror ft. Kimbra
-------------------------------------------------------------------------------

Make sure to pay attention to the amount of times each riff is played.
Hope this tab is useful


    |    |    |    |
G|----------------------| 
D|-----------------5-7--| x8
A|----------------------|
E|--5----5----5---5-----|

    |      |     |    |        |      |     |    |
G|--------------------------|-------5-7----------------|
D|-------5-7----------------|--------------------------| x8
A|-----------------------3--|--5--5------3--5----5--7--|
E|--5--5------3--5----5-----|--------------------------|

    |      |     |     |
G|--------------------------|
D|------7-------------------| x16
A|-----------------------7--|
E|--5--5---5--5--5--5--5----|


24 bars of rest.

[ Tab from: http://www.guitartabs.cc/tabs/m/miami_horror/i_look_to_you_btab.html ]
    |    |    |    |
G|----------------------| 
D|-----------------5-7--| x4
A|----------------------|
E|--5----5----5---5-----|

    |      |     |    |        |      |     |    |
G|--------------------------|-------5-7----------------|
D|-------5-7----------------|--------------------------| x8
A|-----------------------3--|--5--5------3--5----5--7--|
E|--5--5------3--5----5-----|--------------------------|

    |    |    |    |
G|----------------------| 
D|-----------------5-7--| x8
A|----------------------|
E|--5----5----5---5-----|

    |      |     |    |        |      |     |    |
G|--------------------------|-------5-7----------------|
D|-------5-7----------------|--------------------------| x4
A|-----------------------3--|--5--5------3--5----5--7--|
E|--5--5------3--5----5-----|--------------------------|

    |    |    |    |
G|----------------------| 
D|-----------------5-7--| x8
A|----------------------|
E|--5----5----5---5-----|


Finish on:
G|-----|
D|-----|
A|-----|
E|--5--|