Mia - Hungriges Herz Chords & Tabs

 

Hungriges Herz Chords & Tabs

Mia Chords & Tabs

Version: 1 Type: Bass Tab 0 ratings
1 star 2 stars 3 stars 4 stars 5 stars
comments

Hungriges Herz Bass Tab

Artist: Mia 
Song: Hungriges Herz
Album: Stille Post
http://www.miarockt.de/
Tabber ElExar@freenet.de
Tuning: EADG
Basstab

T = Tap


PRECHORUS:

Du bist Eis...
E|----------66666666-68888888-68888888--11111111-66666666-68888888-68888888-|
A|-88888888-----------------------------------------------------------------|  
D|--------------------------------------------------------------------------|
G|--------------------------------------------------------------------------|


CHORUS

Mein Hungriges Herz...
E|-66666666-55555555------------------6-6-666--8-8-888--1-1-111--1-1-111----|
A|-------------------5-5-555--8-8-888---------------------------------------|  
D|--------------------------------------------------------------------------|
G|--------------------------------------------------------------------------|

Mein Hungriges Herz...
E|--6-6-666--5-5-555------------------6-6-666--8-8-888--1-1-111--1-1-111----|
A|------------------5-5-555--8-8-888----------------------------------------|  
D|--------------------------------------------------------------------------|
G|--------------------------------------------------------------------------|


Verse

Deine Augen sehn...
E|-4-T6--4-T6---4-T6--4-T6-4----1-T3--1-T3---1-T3--1-T3-1-------------------|
A|--------------------------------------------------------------------------| played 4x  
D|--------------------------------------------------------------------------|
G|--------------------------------------------------------------------------|



PRECHORUS:
[ Tab from: http://www.guitartabs.cc/tabs/m/mia/hungriges_herz_btab.html ]
Du bist Eis...
E|-1-1-11---6-6-66--8-8-88--8-1-11------------------------------------------|
A|--------------------------------------------------------------------------|  
D|--------------------------------------------------------------------------|
G|--------------------------------------------------------------------------|

Du bist Eis...
E|-3-3-33---6-6-66--8-8-88--8-8-88------------------------------------------|
A|--------------------------------------------------------------------------|  
D|--------------------------------------------------------------------------|
G|--------------------------------------------------------------------------|


CHORUS

Mein Hungriges Herz...
E|-66666666-55555555------------------6-6-666--8-8-888--1-1-111--1-1-111----|
A|-------------------5-5-555--8-8-888---------------------------------------|  
D|--------------------------------------------------------------------------|
G|--------------------------------------------------------------------------|

Mein Hungriges Herz...
E|--6-6-666--5-5-555------------------6-6-666--8-8-888--1-1-111--1-1-111----|
A|------------------5-5-555--8-8-888----------------------------------------|  
D|--------------------------------------------------------------------------|
G|--------------------------------------------------------------------------|


Ending:

Sag mir wie weit...
Du bist Eis...
E|--6-6-666--5-5-555------------------6-6-666--8-8-888--1-1-111--1-1-111----|
A|------------------5-5-555--8-8-888----------------------------------------|  3x
D|--------------------------------------------------------------------------|
G|--------------------------------------------------------------------------|

fading out
Comments