Mi6 - Jeff Brown Chords & Tabs

 

Jeff Brown Chords & Tabs

Mi6 Chords & Tabs

Version: 1 Type: Tab 0 ratings
1 star 2 stars 3 stars 4 stars 5 stars
comments

Jeff Brown Tab

Jeff Brown By Mi6
Standard Tuning!
(dots=palm mutes)

Intro:

E----------------------------------------------------------------
B----------------------------------------------------------------
G----------------------------------------------------------------   
D----7--7-7------------------------------------------------------   
A--55-55-5----7--7-7----9--9-9----5--5-5-------------------------
E-----------55-55-5---77-77-7---33-33-3--------------------------
   .. .. .  .. .. .   .. .. .   .. .. .


Verse:

E----------------------------------------------------------------
B----------------------------------------------------------------
G----------------------------------------------------------------
D----7--7-7------------------------------------------------------
A--55-55-5----7--7-7----9--9-9----5--5-5-------------------------
E-----------55-55-5---77-77-7---33-33-3--------------------------
   .. .. .  .. .. .   .. .. .   .. .. .



Prechorus one:

E----------------------------------------------------------------
B----------------------------------------------------------------
G--77777777------------------------------------------------------
D--77777777-77777777--5-x-55-x-55-x-55---------------------------
A--55555555-77777777--5-x-55-x-55-x-55---------------------------
E-----------55555555--3-x-33-x-33-x-33---------------------------
   
Your still spreading it around...


Prechorus two:

E----------------------------------------------------------------
B----------------------------------------------------------------
G--7xxxxxxx-----------1212-x--1212-x--1212-x-1212-x-12-x-12------
D--7xxxxxxx-7xxxxxxx---x-x-x---x-x-x---x-x-x-x-x--x-x--x-x-------   
A--5xxxxxxx-7xxxxxxx--1010-x--1010-x--1010-x-1010-x-10-x-10------
E-----------5xxxxxxx---------------------------------------------


Chorus:
[ Tab from: http://www.guitartabs.cc/tabs/m/mi6/jeff_brown_tab.html ]
E----------------------------------------------------------------
B----------------------------------------------------------------
G--7-------------------------------------------------------------
D--7-77--55--77--------------------------------------------------
A--5-77--55--77--------------------------------------------------
E----55--33--55--------------------------------------------------


Bridge:

E-----------------------------------------------------------------------
B-----------------------------------------------------------------------
G--7777777777777777------------------7777777777777777-------------------
D--7777777777777777-5555555555555555-7777777777777777-5555555555555555--  
A--5555555555555555-5555555555555555-5555555555555555-5555555555555555--
E-------------------3333333333333333------------------3333333333333333--
   ................ ................ ................ ................

E----------------------------------------------------------------
B----------------------------------------------------------------
G-----6h7---7---6---6h7--------11h12-----12------11-----11h12----
D----------------------------------------------------------------
A--5-5---5-5-5-5-5-5------10-10-----10-10--10-10---10-10---------
E----------------------------------------------------------------
   . .   . . . . . .       . .       .  .   .  .    .  .

E----------------------------------------------------------------
B----------------------------------------------------------------
G-----6h7---7---6---6h7--------11h12-----12------11-----11h12----
D----------------------------------------------------------------
A--5-5---5-5-5-5-5-5------10-10-----10-10--10-10---10-10---------
E----------------------------------------------------------------
   . .   . . . . . .       . .       .  .   .  .    .  .


Interlude:

E----------------------------------------------
B----------------------------------------------
G--77777777------------------------------------
D--77777777-77777777-99999999-55555555--------- 
A--55555555-77777777-99999999-55555555---------
E-----------55555555-77777777-33333333---------


intro
verse x5
prechorus one x2
prechorus two x2
chorus x2
verse x4
prechorus one x2
prechorus two x2
chorus x4
bridge
interlude x4
prechorus one x2
prechorus two x2
chorus x4
Comments