Mezarkabul - Sonsuzluk Chords & Tabs

 

Sonsuzluk Chords & Tabs

Mezarkabul Chords & Tabs

Version: 1 Type: Tab 0 ratings
1 star 2 stars 3 stars 4 stars 5 stars
comments

Sonsuzluk Tab

   
Em
0 2 2 0 0 0 Asus2
x 0 2 2 0 0 D
x x 0 2 3 2 C
x 3 2 0 1 0 
G
3 2 0 0 0 3 Dadd9add11
x 5 4 0 3 0 Am
x 0 2 2 1 0 

    M.M. = 85
    $
    Em          Asus2                 D                                 Em
    |     | | | |     | | | |   | |   |     | | | |     | | | | | | |   |    | | | | |   | | | | | |   | | | | | | | | | | | |
    /     / / / /     / / / /   / /   /     / / / /     / / / / / / /   /    / / / / /   / / / / / /   / / / / / / / / / / / /
        ~~          ~~          ~         ~~          ~~                   ~~~~~~~~~~~~~~    ~         ~
||--0-----0-0-0-0-----0-0-0-0---0-0-|-2-----2-2-2-2-----2-2-2-2-2-2-2-|-0----0-0-0-0-0---0-0-0-0-0-0-|-0-0-0-0-0-0-0-0-0-0-0-0---||
||o-0-----0-0-0-0-----0-0-0-0---0-0-|-3-----3-3-3-3-----3-3-3-3-3-3-3-|-0----0-0-0-0-0---0-0-0-0-0-0-|-0-0-0-0-0-0-0-0-0-0-0-0--o||
||--0-----0-0-0-2-----2-2-2-2---2-2-|-2-----2-2-2-2-----2-2-2-2-2-2-2-|-0----0-0-0-0-0---0-0-0-0-0-0-|-0-0-0-0-0-0-0-0-0-0-0-0---||
||--2-----2-2-2-2-----2-2-2-2---2-2-|-0-----0-0-0-0-----0-0-0-0-0-0-0-|-2----2-2-2-2-2---2-2-2-2-2-2-|-2-2-2-2-2-2-2-2-2-2-2-2---||
||o-2-----2-2-2-0-----0-0-0-0---0-0-|---------------------------------|-2----2-2-2-2-2---2-2-2-2-2-2-|-2-2-2-2-2-2-2-2-2-2-2-2--o||
||--0-----0-0-0---------------------|---------------------------------|-0----0-0-0-0-0---0-0-0-0-0-0-|-0-0-0-0-0-0-0-0-0-0-0-0---||
|
||----------------------------------|---------------------------------|------------------------------|---------------------------||
||o---------------------------------|---------------------------------|------------------------------|--------------------------o||
||----9-----------7-----------------|---7-----------7-----------------|------------------------------|---------------------------||
||--9---9\------7---7\------4-5-7---|-7---7\------4---4\------5-4-----|------------------------------|---------------------------||
||o---------------------------------|-----------------------------7-5-|-5\-7---------(7)-4-5-7---4-5-|-7------------------------o||
||----------------------------------|---------------------------------|------------------------------|---------------------------||


  C                             Dadd9add11                       Em                        Em
  |     | | | | | | | | | | |   |       | | | | | | | | | | |    | | | | | | | | | | | |   |   | | | | | | | | | | |
  /     / / / / / / / / / / /   /       / / / / / / / / / / /    / / / / / / / / / / / /   /   / / / / / / / / / / /
                                                                 ~~~~~~~~~~~~~~~~~~~~~~~~~~~~~~
|-0-----0-x-0-x-0-x-0-0-0-0-0-|-0-------0-x-0-x-0-x-0-0-0-0-0--|-0-0-0-0-0-0-0-0-0-0-0-0-|-0---0-0-0-0-0-0-0-0-0-0-0--|
|-1-----1-x-1-x-1-x-1-1-1-1-1-|-3-------3-x-3-x-3-x-3-3-3-3-3--|-0-0-0-0-0-0-0-0-0-0-0-0-|-0---0-0-0-0-0-0-0-0-0-0-0--|
|-0-----0-x-0-x-0-x-0-0-0-0-0-|-0-------0-x-0-x-0-x-0-0-0-0-0--|-0-0-0-0-0-0-0-0-0-0-0-0-|-0---0-0-0-0-0-0-0-0-0-0-0--|
|-2-----2-x-2-x-2-x-2-2-2-2-2-|-4-------4-x-4-x-4-x-4-4-4-4-4--|-2-2-2-2-2-2-2-2-2-2-2-2-|-2---2-2-2-2-2-2-2-2-2-2-2--|
|-3-----3-x-3-x-3-x-3-3-3-3-3-|-5-------5-x-5-x-5-x-5-5-5-5-5--|-2-2-2-2-2-2-2-2-2-2-2-2-|-2---2-2-2-2-2-2-2-2-2-2-2--|
|-----------------------------|--------------------------------|-0-0-0-0-0-0-0-0-0-0-0-0-|-0---0-0-0-0-0-0-0-0-0-0-0--|
|
|-----------------------------|--------------------------------|-------------------------|----------------------------|
|-----------------------------|--------------------------------|-------------------------|----------------------------|
|-----------------------------|--------------------------------|-------------------------|----------------------------|
|---2-2-------5-5---0---2-0---|-(0)-2-2-0-----7---7------------|-------------------------|----------------------------|
|-------3---------------------|---------------------7---5---5\-|-7-----------------------|-(7)------------------------|
|-----------------------------|--------------------------------|-------------------------|----------------------------|


  C                             Dadd9add11                       Em                        Em
  |     | | | | | | | | | | |   |       | | | | | | | | | | |    | | | | | | | | | | | |   |
  /     / / / / / / / / / / /   /       / / / / / / / / / / /    / / / / / / / / / / / /   /
                                                                 ~~~~~~~~~~~~~~~~~~~~~~~~~~~~~~
|-0-----0-x-0-x-0-x-0-0-0-0-0-|-0-------0-x-0-x-0-x-0-0-0-0-0--|-0-0-0-0-0-0-0-0-0-0-0-0-|-0-----------|
|-1-----1-x-1-x-1-x-1-1-1-1-1-|-3-------3-x-3-x-3-x-3-3-3-3-3--|-0-0-0-0-0-0-0-0-0-0-0-0-|-0-----------|
|-0-----0-x-0-x-0-x-0-0-0-0-0-|-0-------0-x-0-x-0-x-0-0-0-0-0--|-0-0-0-0-0-0-0-0-0-0-0-0-|-0-----------|
|-2-----2-x-2-x-2-x-2-2-2-2-2-|-4-------4-x-4-x-4-x-4-4-4-4-4--|-2-2-2-2-2-2-2-2-2-2-2-2-|-2-----------|
|-3-----3-x-3-x-3-x-3-3-3-3-3-|-5-------5-x-5-x-5-x-5-5-5-5-5--|-2-2-2-2-2-2-2-2-2-2-2-2-|-2-----------|
|-----------------------------|--------------------------------|-0-0-0-0-0-0-0-0-0-0-0-0-|-0-----------|
|
|-----------------------------|--------------------------------|-------------------------|-------------|
|-----------------------------|--------------------------------|-------------------------|-------------|
|-----------------------------|--------------------------------|-------------------------|-------------|
|---2-2-------5-5---0---2-0---|-(0)-2-2-0-----7---7------------|-------------------------|-------------|
|-------3---------------------|---------------------7---5---5\-|-7-----------------------|-(7)---------|
|-----------------------------|--------------------------------|-------------------------|-------------|


    Em
    | | | | | | | | | | | |   | | | | | | | | | | | |   | | | | | | | | | | | |   | | | | | | | | | | | |
    / / / / / / / / / / / /   / / / / / / / / / / / /   / / / / / / / / / / / /   / / / / / / / / / / / /
||--------------------------|-------------------------|-------------------------|--------------------------|
||o-------------------------|-------------------------|-------------------------|--------------------------|
||--------------------------|-------------------------|-------------------------|--------------------------|
||--------------------------|-------------------------|-------------------------|--------------------------|
||o-------------------------|-------------------------|-------------------------|--------------------------|
||--------------------------|-------------------------|-------------------------|--------------------------|


                                                                                                                     To Coda
  Am                                                               Em
  |    |    | | |  | | | | | |    |   |    | | | | | | | | | | |   | | | | | | | | | | | |   | | | | | | | | | | | |
  /    /    / / /  / / / / / /    /   /    / / / / / / / / / / /   / / / / / / / / / / / /   / / / / / / / / / / / /
                ~~~~~~~~~~~~~~~~~~~~~~~~~~~
|-----------------------------------|----------------------------|-------------------------|-----------------------------------||
|--------8\-----10-----------(10)---|-(10)-----------------------|-------------------------|----------------------------------o||
|---/9------------------------------|----------------------------|-------------------------|-----------------------------------||
|-----------------------------------|----------------------------|-------------------------|-----------------------------------||
|-----------------------------------|----------------------------|-------------------------|----------------------------------o||
|-----------------------------------|----------------------------|-------------------------|-----------------------------------||


  G                         D                         Em                        Em
  | | | | | | | | | | | |   | | | | | | | | | | | |   | | | | | | | | | | | |   |              | | | |    | | | | | | |
  / / / / / / / / / / / /   / / / / / / / / / / / /   / / / / / / / / / / / /   /              / / / /    / / / / / / /
                                                                                ~~~~~~~~~~~~~~~~~~~~~~~~~~~~~~~~~~~~~~~~~
|-------------------------|-------------------------|-------------------------|-------------------------------------------|
|-------------------------|-------------------------|-------------------------|-------------------------------------------|
|-------------------------|-------------------------|-------------------------|-/9-(9)\d0.5u-7----------------------------|
|-------------------------|-------------------------|-------------------------|------------------9p7-5\-7h7-9-7--h7-9-7\--|
|-------------------------|-------------------------|-------------------------|-------------------------------------------|
|-------------------------|-------------------------|-------------------------|-------------------------------------------|


  G                          D                         Em                        Em
  |  | | | | | | | | | | |   | | | | | | | | | | | |   | | | | | | | | | | | |   | | |  | |    | | | |  | | |
  /  / / / / / / / / / / /   / / / / / / / / / / / /   / / / / / / / / / / / /   / / /  / /    / / / /  / / /
  ~~                                                                                 ~~~~~~~~~~~~~~~~~~~~~~~
|--------------------------|-------------------------|-------------------------|-------------------------------|
|--------------------------|-------------------------|-------------------------|----------8\-7-----------------|
|--------------------------|-------------------------|-------------------------|-----/9----------9---7\---9----|
|-/5-----------------------|-------------------------|-------------------------|-------------------------------|
|--------------------------|-------------------------|-------------------------|-------------------------------|
|--------------------------|-------------------------|-------------------------|-------------------------------|


  C                           Dadd9add11                  Em                        Em
  |   | | | | | | | | | | |   |   | | | | | | | | | | |   | | | | | | | | | | | |   |   | | | | | | | | | | |
  /   / / / / / / / / / / /   /   / / / / / / / / / / /   / / / / / / / / / / / /   /   / / / / / / / / / / /
  ~~~~~~~~~~~~~~~~~~~~~~~~~~~~~~~~~~~~~~~~~~~~~~~~~~~~~~~~~~~~~~~~~~~~~~~~~~~~~~~~~~~~~~
|-0---0-x-0-x-0-x-0-0-0-0-0-|-0---0-x-0-x-0-x-0-0-0-0-0-|-0-0-0-0-0-0-0-0-0-0-0-0-|-0---0-0-0-0-0-0-0-0-0-0-0--|
|-1---1-x-1-x-1-x-1-1-1-1-1-|-3---3-x-3-x-3-x-3-3-3-3-3-|-0-0-0-0-0-0-0-0-0-0-0-0-|-0---0-0-0-0-0-0-0-0-0-0-0--|
|-0---0-x-0-x-0-x-0-0-0-0-0-|-0---0-x-0-x-0-x-0-0-0-0-0-|-0-0-0-0-0-0-0-0-0-0-0-0-|-0---0-0-0-0-0-0-0-0-0-0-0--|
|-2---2-x-2-x-2-x-2-2-2-2-2-|-4---4-x-4-x-4-x-4-4-4-4-4-|-2-2-2-2-2-2-2-2-2-2-2-2-|-2---2-2-2-2-2-2-2-2-2-2-2--|
|-3---3-x-3-x-3-x-3-3-3-3-3-|-5---5-x-5-x-5-x-5-5-5-5-5-|-2-2-2-2-2-2-2-2-2-2-2-2-|-2---2-2-2-2-2-2-2-2-2-2-2--|
|---------------------------|---------------------------|-0-0-0-0-0-0-0-0-0-0-0-0-|-0---0-0-0-0-0-0-0-0-0-0-0--|
|
|---------------------------|---------------------------|-------------------------|----------------------------|
|---------------------------|---------------------------|-------------------------|----------------------------|
|-5/------------------------|-7/------------------------|-9-----------------------|-(9)------------------------|
|---------------------------|---------------------------|-------------------------|----------------------------|
|---------------------------|---------------------------|-------------------------|----------------------------|
|---------------------------|---------------------------|-------------------------|----------------------------|


                                                                                                               D.S. al Coda
  C                           Dadd9add11                  Em                         Em
  |   | | | | | | | | | | |   |   | | | | | | | | | | |   |  | | | | | | | | | | |   | | | | |     | | | | | | |
  /   / / / / / / / / / / /   /   / / / / / / / / / / /   /  / / / / / / / / / / /   / / / / /     / / / / / / /
  ~~~~~~~~~~~~~~~~~~~~~~~~~~~~~~~~~~~~~~~~~~~~~~~~~~~~~~~~~~~~~~~~~~~~~~~~~~~~~~~~~~~~~~~~~~~~~~~~~
|-0---0-x-0-x-0-x-0-0-0-0-0-|-0---0-x-0-x-0-x-0-0-0-0-0-|-0--0-0-0-0-0-0-0-0-0-0-0-|-0-0-0-0-0-----0-0-0-0-0-0-0-------------|
|-1---1-x-1-x-1-x-1-1-1-1-1-|-3---3-x-3-x-3-x-3-3-3-3-3-|-0--0-0-0-0-0-0-0-0-0-0-0-|-0-0-0-0-0-----0-0-0-0-0-0-0-------------|
|-0---0-x-0-x-0-x-0-0-0-0-0-|-0---0-x-0-x-0-x-0-0-0-0-0-|-0--0-0-0-0-0-0-0-0-0-0-0-|-0-0-0-0-0-----0-0-0-0-0-0-0-------------|
|-2---2-x-2-x-2-x-2-2-2-2-2-|-4---4-x-4-x-4-x-4-4-4-4-4-|-2--2-2-2-2-2-2-2-2-2-2-2-|-2-2-2-2-2-----2-2-2-2-2-2-2-------------|
|-3---3-x-3-x-3-x-3-3-3-3-3-|-5---5-x-5-x-5-x-5-5-5-5-5-|-2--2-2-2-2-2-2-2-2-2-2-2-|-2-2-2-2-2-----2-2-2-2-2-2-2-------------|
|---------------------------|---------------------------|-0--0-0-0-0-0-0-0-0-0-0-0-|-0-0-0-0-0-----0-0-0-0-0-0-0-------------|
|
|---------------------------|---------------------------|--------------------------|-----------------------------------------|
|---------------------------|---------------------------|--------------------------|-----------------------------------------|
|-5/------------------------|-7/------------------------|-9/-----------------------|-4---------(4)--p7h5p7h5p7-5-------------|
|---------------------------|---------------------------|--------------------------|-----------------------------------------|
|---------------------------|---------------------------|--------------------------|-----------------------------------------|
|---------------------------|---------------------------|--------------------------|-----------------------------------------|


  &
  G                         D                         Em                        Em
  | | | | | | | | | | | |   | | | | | | | | | | | |   | | | | | | | | | | | |   |    | |  | |   | | | | | | |
  / / / / / / / / / / / /   / / / / / / / / / / / /   / / / / / / / / / / / /   /    / /  / /   / / / / / / /
                                                                                  ~~~~~~~~~~~~~~~~~~~~~~~~~~
|-------------------------|-------------------------|-------------------------|--------------------------------|
|-------------------------|-------------------------|-------------------------|--------8\---7------------------|
|-------------------------|-------------------------|-------------------------|---/9----------9---7------------|
|-------------------------|-------------------------|-------------------------|-----------------------9---7----|
|-------------------------|-------------------------|-------------------------|--------------------------------|
|-------------------------|-------------------------|-------------------------|--------------------------------|


  G                         D                         Em                           Em
  | | | | | | | | | | | |   | | | | | | | | | | | |   | | | | |  | | | | | | |     |         |  | |   |      | |  | | | |  |
  / / / / / / / / / / / /   / / / / / / / / / / / /   / / / / /  / / / / / / /     /         /  / /   /      / /  / / / /  /
  ~                                                                          ~~~
|-------------------------|-------------------------|----------------------------|--------------------------------------------|
|-------------------------|-------------------------|----------------------------|--------------------------------------------|
|-------------------------|-------------------------|------------------------/12-|p12h11-12\p11h9-11\p9h7-9\p7-5\-4-----------|
|-5-----------------------|-------------------------|----------------------------|---------------------------------h7p9-7\-5--|
|-------------------------|-------------------------|----------------------------|--------------------------------------------|
|-------------------------|-------------------------|----------------------------|--------------------------------------------|

[ Tab from: http://www.guitartabs.cc/tabs/m/mezarkabul/sonsuzluk_tab.html ]
  C                           Dadd9add11                  Em                        Em
  |   | | | | | | | | | | |   |   | | | | | | | | | | |   | | | | | | | | | | | |   |   | | | | | | | | | | |
  /   / / / / / / / / / / /   /   / / / / / / / / / / /   / / / / / / / / / / / /   /   / / / / / / / / / / /
  ~~~~~~~~~~~~~~~~~~~~~~~~~~~~~~~~~~~~~~~~~~~~~~~~~~~~~~~~~~~~~~~~~~~~~~~~~~~~~~~~~~~~~~
|-0---0-x-0-x-0-x-0-0-0-0-0-|-0---0-x-0-x-0-x-0-0-0-0-0-|-0-0-0-0-0-0-0-0-0-0-0-0-|-0---0-0-0-0-0-0-0-0-0-0-0--|
|-1---1-x-1-x-1-x-1-1-1-1-1-|-3---3-x-3-x-3-x-3-3-3-3-3-|-0-0-0-0-0-0-0-0-0-0-0-0-|-0---0-0-0-0-0-0-0-0-0-0-0--|
|-0---0-x-0-x-0-x-0-0-0-0-0-|-0---0-x-0-x-0-x-0-0-0-0-0-|-0-0-0-0-0-0-0-0-0-0-0-0-|-0---0-0-0-0-0-0-0-0-0-0-0--|
|-2---2-x-2-x-2-x-2-2-2-2-2-|-4---4-x-4-x-4-x-4-4-4-4-4-|-2-2-2-2-2-2-2-2-2-2-2-2-|-2---2-2-2-2-2-2-2-2-2-2-2--|
|-3---3-x-3-x-3-x-3-3-3-3-3-|-5---5-x-5-x-5-x-5-5-5-5-5-|-2-2-2-2-2-2-2-2-2-2-2-2-|-2---2-2-2-2-2-2-2-2-2-2-2--|
|---------------------------|---------------------------|-0-0-0-0-0-0-0-0-0-0-0-0-|-0---0-0-0-0-0-0-0-0-0-0-0--|
|
|---------------------------|---------------------------|-------------------------|----------------------------|
|---------------------------|---------------------------|-------------------------|----------------------------|
|-5/------------------------|-7/------------------------|-9-----------------------|-(9)------------------------|
|---------------------------|---------------------------|-------------------------|----------------------------|
|---------------------------|---------------------------|-------------------------|----------------------------|
|---------------------------|---------------------------|-------------------------|----------------------------|


  C                           Dadd9add11                  Em                        Em
  |   | | | | | | | | | | |   |   | | | | | | | | | | |   | | | | | | | | | | | |   |   | | | | | | | | | | |
  /   / / / / / / / / / / /   /   / / / / / / / / / / /   / / / / / / / / / / / /   /   / / / / / / / / / / /
  ~~~~~~~~~~~~~~~~~~~~~~~~~~~~~~~~~~~~~~~~~~~~~~~~~~~~~~~~~~~~~~~~~~~~~~~~~~~~~~~~~~~~~~
|-0---0-x-0-x-0-x-0-0-0-0-0-|-0---0-x-0-x-0-x-0-0-0-0-0-|-0-0-0-0-0-0-0-0-0-0-0-0-|-0---0-0-0-0-0-0-0-0-0-0-0--|
|-1---1-x-1-x-1-x-1-1-1-1-1-|-3---3-x-3-x-3-x-3-3-3-3-3-|-0-0-0-0-0-0-0-0-0-0-0-0-|-0---0-0-0-0-0-0-0-0-0-0-0--|
|-0---0-x-0-x-0-x-0-0-0-0-0-|-0---0-x-0-x-0-x-0-0-0-0-0-|-0-0-0-0-0-0-0-0-0-0-0-0-|-0---0-0-0-0-0-0-0-0-0-0-0--|
|-2---2-x-2-x-2-x-2-2-2-2-2-|-4---4-x-4-x-4-x-4-4-4-4-4-|-2-2-2-2-2-2-2-2-2-2-2-2-|-2---2-2-2-2-2-2-2-2-2-2-2--|
|-3---3-x-3-x-3-x-3-3-3-3-3-|-5---5-x-5-x-5-x-5-5-5-5-5-|-2-2-2-2-2-2-2-2-2-2-2-2-|-2---2-2-2-2-2-2-2-2-2-2-2--|
|---------------------------|---------------------------|-0-0-0-0-0-0-0-0-0-0-0-0-|-0---0-0-0-0-0-0-0-0-0-0-0--|
|
|---------------------------|---------------------------|-------------------------|----------------------------|
|---------------------------|---------------------------|-------------------------|----------------------------|
|-5/------------------------|-7/------------------------|-9-----------------------|-(9)------------------------|
|---------------------------|---------------------------|-------------------------|----------------------------|
|---------------------------|---------------------------|-------------------------|----------------------------|
|---------------------------|---------------------------|-------------------------|----------------------------|


  C                                  Dadd9add11                          Em                             Em
  |        |   | | | | | | | | | |   |         |   | | | | | | | | | |   | | | | | | | | |   |   | |    |          | | | | | | | | | | |
  /        /   / / / / / / / / / /   /         /   / / / / / / / / / /   / / / / / / / / /   /   / /    /          / / / / / / / / / / /
                       ~                             ~~~~~~~~~~~~~~      ~                                      ~~~
|-0--------0---x-0-x-0-x-0-0-0-0-0-|-0---------0---x-0-x-0-x-0-0-0-0-0-|-0-0-0-0-0-0-0-0-0---0---0-0--|-0----------0-0-0-0-0-0-0-0-0-0-0-|
|-1--------1---x-1-x-1-x-1-1-1-1-1-|-3---------3---x-3-x-3-x-3-3-3-3-3-|-0-0-0-0-0-0-0-0-0---0---0-0--|-0----------0-0-0-0-0-0-0-0-0-0-0-|
|-0--------0---x-0-x-0-x-0-0-0-0-0-|-0---------0---x-0-x-0-x-0-0-0-0-0-|-0-0-0-0-0-0-0-0-0---0---0-0--|-0----------0-0-0-0-0-0-0-0-0-0-0-|
|-2--------2---x-2-x-2-x-2-2-2-2-2-|-4---------4---x-4-x-4-x-4-4-4-4-4-|-2-2-2-2-2-2-2-2-2---2---2-2--|-2----------2-2-2-2-2-2-2-2-2-2-2-|
|-3--------3---x-3-x-3-x-3-3-3-3-3-|-5---------5---x-5-x-5-x-5-5-5-5-5-|-2-2-2-2-2-2-2-2-2---2---2-2--|-2----------2-2-2-2-2-2-2-2-2-2-2-|
|----------------------------------|-----------------------------------|-0-0-0-0-0-0-0-0-0---0---0-0--|-0----------0-0-0-0-0-0-0-0-0-0-0-|
|
|----------------------------------|-----------------------------------|------------------------------|----------------------------------|
|-8------7-----7-------------------|-----------------------------------|------------------------------|----------------------------------|
|---9------7-----7---7-9---7---5---|-4p5-4-----------------------------|---------------------------12-|-(12)-12--------------------------|
|-----10-----9-----7---------9---7-|-------7-5-7-4-5-4---5---4---5-----|-9---------------(9)-/14------|---------14\----------------------|
|----------------------------------|-----------------------------------|------------------------------|----------------------------------|
|----------------------------------|-----------------------------------|------------------------------|----------------------------------|


  C                                  Dadd9add11                           Em                           Em
  |        |   | | | | | | | | | |   |         |   |  | | | | | | | | |   |    | | | | | | | | | | |   | | | | |      | | | | | | |
  /        /   / / / / / / / / / /   /         /   /  / / / / / / / / /   /    / / / / / / / / / / /   / / / / /      / / / / / / /
                                                      ~                      ~                         ~
|-0--------0---x-0-x-0-x-0-0-0-0-0-|-0---------0---x--0-x-0-x-0-0-0-0-0-|-0----0-0-0-0-0-0-0-0-0-0-0-|-0-0-0-0-0------0-0-0-0-0-0-0--|
|-1--------1---x-1-x-1-x-1-1-1-1-1-|-3---------3---x--3-x-3-x-3-3-3-3-3-|-0----0-0-0-0-0-0-0-0-0-0-0-|-0-0-0-0-0------0-0-0-0-0-0-0--|
|-0--------0---x-0-x-0-x-0-0-0-0-0-|-0---------0---x--0-x-0-x-0-0-0-0-0-|-0----0-0-0-0-0-0-0-0-0-0-0-|-0-0-0-0-0------0-0-0-0-0-0-0--|
|-2--------2---x-2-x-2-x-2-2-2-2-2-|-4---------4---x--4-x-4-x-4-4-4-4-4-|-2----2-2-2-2-2-2-2-2-2-2-2-|-2-2-2-2-2------2-2-2-2-2-2-2--|
|-3--------3---x-3-x-3-x-3-3-3-3-3-|-5---------5---x--5-x-5-x-5-5-5-5-5-|-2----2-2-2-2-2-2-2-2-2-2-2-|-2-2-2-2-2------2-2-2-2-2-2-2--|
|----------------------------------|------------------------------------|-0----0-0-0-0-0-0-0-0-0-0-0-|-0-0-0-0-0------0-0-0-0-0-0-0--|
|
|----------------------------------|------------------------------------|----------------------------|-------------------------------|
|-8------7-----7-----7-------------|------------------------------------|------------------------7---|p8------h7h8p10-8---7----p8-7--|
|---9------7-----7-----7---7---5---|-4p5-4------------------------------|----------------7---9-------|-------------------------------|
|-----10-----9-----7-----9---9---7-|-------7-5-7-5-7\-9---7---5---7---7-|-7\-9-----------------------|-------------------------------|
|----------------------------------|------------------------------------|----------------------------|-------------------------------|
|----------------------------------|------------------------------------|----------------------------|-------------------------------|


  C                          Dadd9add11                 Em                                             Em
  |  | | | | | | | | | | |   |  | | | | | | | | | | |   | | | | |      | |     | |   |   |       |     |     | | | |     | | | |  | | |
  /  / / / / / / / / / / /   /  / / / / / / / / / / /   / / / / /      / /     / /   /   /       /     /     / / / /     / / / /  / / /
  ~                                                                      ~~~~~~~~~~~~~~~~~~~~~~~~~~~~            ~     ~          ~
|-0--0-x-0-x-0-x-0-0-0-0-0-|-0--0-x-0-x-0-x-0-0-0-0-0-|-0-0-0-0-0------0-0-----0-0---0---0-------0---|-0-----0-0-0-0-----0-0-0-0--0-0-0-|
|-1--1-x-1-x-1-x-1-1-1-1-1-|-3--3-x-3-x-3-x-3-3-3-3-3-|-0-0-0-0-0------0-0-----0-0---0---0-------0---|-0-----0-0-0-0-----0-0-0-0--0-0-0-|
|-0--0-x-0-x-0-x-0-0-0-0-0-|-0--0-x-0-x-0-x-0-0-0-0-0-|-0-0-0-0-0------0-0-----0-0---0---0-------0---|-0-----0-0-0-0-----0-0-0-0--0-0-0-|
|-2--2-x-2-x-2-x-2-2-2-2-2-|-4--4-x-4-x-4-x-4-4-4-4-4-|-2-2-2-2-2------2-2-----2-2---2---2-------2---|-2-----2-2-2-2-----2-2-2-2--2-2-2-|
|-3--3-x-3-x-3-x-3-3-3-3-3-|-5--5-x-5-x-5-x-5-5-5-5-5-|-2-2-2-2-2------2-2-----2-2---2---2-------2---|-2-----2-2-2-2-----2-2-2-2--2-2-2-|
|--------------------------|--------------------------|-0-0-0-0-0------0-0-----0-0---0---0-------0---|-0-----0-0-0-0-----0-0-0-0--0-0-0-|
|
|--------------------------|--------------------------|----------------------------------------------|----------------------------------|
|--------------------------|--------------------------|----------------8-7b8r7---(7)-7b8-(7)b8r7-(7)-|----------------------------------|
|-9------------------------|--------------------------|--------------9-------------------------------|-9-7-9---7------------------------|
|--------------------------|--------------------------|------------9---------------------------------|-------9---7---9-5---7-5-7/-9---7-|
|--------------------------|--------------------------|---------/7-----------------------------------|----------------------------------|
|--------------------------|--------------------------|----------------------------------------------|----------------------------------|


  C                          Dadd9add11                 Em                              Em
  |  | | | | | | | | | | |   |  | | | | | | | | | | |   | | | | |      | | | | |  | |   |   | | | |   |   | | | | | |
  /  / / / / / / / / / / /   /  / / / / / / / / / / /   / / / / /      / / / / /  / /   /   / / / /   /   / / / / / /
  ~                                                                          ~          ~~~
|-0--0-x-0-x-0-x-0-0-0-0-0-|-0--0-x-0-x-0-x-0-0-0-0-0-|-0-0-0-0-0------0-0-0-0-0--0-0-|-0---0-0-0-0---0---0-0-0-0-0-0--|
|-1--1-x-1-x-1-x-1-1-1-1-1-|-3--3-x-3-x-3-x-3-3-3-3-3-|-0-0-0-0-0------0-0-0-0-0--0-0-|-0---0-0-0-0---0---0-0-0-0-0-0--|
|-0--0-x-0-x-0-x-0-0-0-0-0-|-0--0-x-0-x-0-x-0-0-0-0-0-|-0-0-0-0-0------0-0-0-0-0--0-0-|-0---0-0-0-0---0---0-0-0-0-0-0--|
|-2--2-x-2-x-2-x-2-2-2-2-2-|-4--4-x-4-x-4-x-4-4-4-4-4-|-2-2-2-2-2------2-2-2-2-2--2-2-|-2---2-2-2-2---2---2-2-2-2-2-2--|
|-3--3-x-3-x-3-x-3-3-3-3-3-|-5--5-x-5-x-5-x-5-5-5-5-5-|-2-2-2-2-2------2-2-2-2-2--2-2-|-2---2-2-2-2---2---2-2-2-2-2-2--|
|--------------------------|--------------------------|-0-0-0-0-0------0-0-0-0-0--0-0-|-0---0-0-0-0---0---0-0-0-0-0-0--|
|
|--------------------------|--------------------------|-------------------------------|--------------------------------|
|--------------------------|--------------------------|-----------12d1-------8-10---8-|-(8)---------7p8-7---7----------|
|--------------------------|--------------------------|---------------------------9---|-------------------9--h7p9p7-5--|
|-5------------------------|--------------------------|-------------------------------|--------------------------------|
|--------------------------|--------------------------|-------------------------------|--------------------------------|
|--------------------------|--------------------------|-------------------------------|--------------------------------|


  C                           Dadd9add11                 Em                                    Em
  |   | | | | | | | | | | |   |  | | | | | | | | | | |   | | | | |      | |   |  |  |   | |    |      |  | | |      | |   | | | | |
  /   / / / / / / / / / / /   /  / / / / / / / / / / /   / / / / /      / /   /  /  /   / /    /      /  / / /      / /   / / / / /
    ~
|-0---0-x-0-x-0-x-0-0-0-0-0-|-0--0-x-0-x-0-x-0-0-0-0-0-|-0-0-0-0-0------0-0---0--0--0---0-0--|-0------0--0-0-0------0-0---0-0-0-0-0-|
|-1---1-x-1-x-1-x-1-1-1-1-1-|-3--3-x-3-x-3-x-3-3-3-3-3-|-0-0-0-0-0------0-0---0--0--0---0-0--|-0------0--0-0-0------0-0---0-0-0-0-0-|
|-0---0-x-0-x-0-x-0-0-0-0-0-|-0--0-x-0-x-0-x-0-0-0-0-0-|-0-0-0-0-0------0-0---0--0--0---0-0--|-0------0--0-0-0------0-0---0-0-0-0-0-|
|-2---2-x-2-x-2-x-2-2-2-2-2-|-4--4-x-4-x-4-x-4-4-4-4-4-|-2-2-2-2-2------2-2---2--2--2---2-2--|-2------2--2-2-2------2-2---2-2-2-2-2-|
|-3---3-x-3-x-3-x-3-3-3-3-3-|-5--5-x-5-x-5-x-5-5-5-5-5-|-2-2-2-2-2------2-2---2--2--2---2-2--|-2------2--2-2-2------2-2---2-2-2-2-2-|
|---------------------------|--------------------------|-0-0-0-0-0------0-0---0--0--0---0-0--|-0------0--0-0-0------0-0---0-0-0-0-0-|
|
|---------------------------|--------------------------|-------------------------------------|--------------------------------------|
|---------------------------|--------------------------|-------------------------------------|--------------------------------------|
|p7-5-----------------------|--------------------------|-------------12---12\-11----11\-9----|-9\-7---7\-5---5\-4---4p5-4---------4-|
|---------------------------|--------------------------|---------/14-------------12-------10-|------9------7------5-------7-5-4-5---|
|---------------------------|--------------------------|-------------------------------------|--------------------------------------|
|---------------------------|--------------------------|-------------------------------------|--------------------------------------|


  C                          Dadd9add11                 Em                        Em
  |  | | | | | | | | | | |   |  | | | | | | | | | | |   | | | | | | | | | | | |   | | | | | | | | | | | |
  /  / / / / / / / / / / /   /  / / / / / / / / / / /   / / / / / / / / / / / /   / / / / / / / / / / / /
  ~
|-0--0-x-0-x-0-x-0-0-0-0-0-|-0--0-x-0-x-0-x-0-0-0-0-0-|-0-0-0-0-0-0-0-0-0-0-0-0-|-0-0-0-0-0-0-0-0-0-0-0-0--|
|-1--1-x-1-x-1-x-1-1-1-1-1-|-3--3-x-3-x-3-x-3-3-3-3-3-|-0-0-0-0-0-0-0-0-0-0-0-0-|-0-0-0-0-0-0-0-0-0-0-0-0--|
|-0--0-x-0-x-0-x-0-0-0-0-0-|-0--0-x-0-x-0-x-0-0-0-0-0-|-0-0-0-0-0-0-0-0-0-0-0-0-|-0-0-0-0-0-0-0-0-0-0-0-0--|
|-2--2-x-2-x-2-x-2-2-2-2-2-|-4--4-x-4-x-4-x-4-4-4-4-4-|-2-2-2-2-2-2-2-2-2-2-2-2-|-2-2-2-2-2-2-2-2-2-2-2-2--|
|-3--3-x-3-x-3-x-3-3-3-3-3-|-5--5-x-5-x-5-x-5-5-5-5-5-|-2-2-2-2-2-2-2-2-2-2-2-2-|-2-2-2-2-2-2-2-2-2-2-2-2--|
|--------------------------|--------------------------|-0-0-0-0-0-0-0-0-0-0-0-0-|-0-0-0-0-0-0-0-0-0-0-0-0--|
|
|--------------------------|--------------------------|-------------------------|--------------------------|
|--------------------------|--------------------------|-------------------------|--------------------------|
|--------------------------|--------------------------|-------------------------|--------------------------|
|-5------------------------|--------------------------|-------------------------|--------------------------|
|--------------------------|--------------------------|-------------------------|--------------------------|
|--------------------------|--------------------------|-------------------------|--------------------------|


    C                           Dadd9add11                  Em                        Em
    |   | | | | | | | | | | |   |   | | | | | | | | | | |   | | | | | | | | | | | |   |   | | | | | | | | | | |
    /   / / / / / / / / / / /   /   / / / / / / / / / / /   / / / / / / / / / / / /   /   / / / / / / / / / / /
    ~~~~~~~~~~~~~~~~~~~~~~~~~~~~~~~~~~~~~~~~~~~~~~~~~~~~~~~~~~~~~~~~~~~~~~~~~~~~~~~~~~~~~~
||--0---0-x-0-x-0-x-0-0-0-0-0-|-0---0-x-0-x-0-x-0-0-0-0-0-|-0-0-0-0-0-0-0-0-0-0-0-0-|-0---0-0-0-0-0-0-0-0-0-0-0---||
||o-1---1-x-1-x-1-x-1-1-1-1-1-|-3---3-x-3-x-3-x-3-3-3-3-3-|-0-0-0-0-0-0-0-0-0-0-0-0-|-0---0-0-0-0-0-0-0-0-0-0-0--o||
||--0---0-x-0-x-0-x-0-0-0-0-0-|-0---0-x-0-x-0-x-0-0-0-0-0-|-0-0-0-0-0-0-0-0-0-0-0-0-|-0---0-0-0-0-0-0-0-0-0-0-0---||
||--2---2-x-2-x-2-x-2-2-2-2-2-|-4---4-x-4-x-4-x-4-4-4-4-4-|-2-2-2-2-2-2-2-2-2-2-2-2-|-2---2-2-2-2-2-2-2-2-2-2-2---||
||o-3---3-x-3-x-3-x-3-3-3-3-3-|-5---5-x-5-x-5-x-5-5-5-5-5-|-2-2-2-2-2-2-2-2-2-2-2-2-|-2---2-2-2-2-2-2-2-2-2-2-2--o||
||----------------------------|---------------------------|-0-0-0-0-0-0-0-0-0-0-0-0-|-0---0-0-0-0-0-0-0-0-0-0-0---||
|
||----------------------------|---------------------------|-------------------------|-----------------------------||
||o---------------------------|---------------------------|-------------------------|----------------------------o||
||--5\------------------------|-7\------------------------|-9-----------------------|-(9)-------------------------||
||----------------------------|---------------------------|-------------------------|-----------------------------||
||o---------------------------|---------------------------|-------------------------|----------------------------o||
||----------------------------|---------------------------|-------------------------|-----------------------------||



--------------------------------------------------------------------------------
Legend
------

h = hammer-on; p = pull-off; b = bend; r = bend release; / = slide up/down; [5] = nat. harmonic; <5> = art. harmonic;
~ = vibrato; tr = trill; T = tap; TP = trem. picking; PM = palm muting; | = bar; || = double bar; ||o = repeat start;
*|| = repeat end; *| = double bar (end); : = bar (freetime); d = tremolo bar dive; u = tremolo bar up;
= = hold (bend or tremolo bar)


Doğu Yürür...
Comments