Mewithoutyou - My Exit Unfair Chords & Tabs

 

My Exit Unfair Chords & Tabs

Mewithoutyou Chords & Tabs

Version: 1 Type: Tab 0 ratings
1 star 2 stars 3 stars 4 stars 5 stars
comments

My Exit Unfair Tab

Song:	My Exit, Unfair
Artist:	MewithoutYou
Album:	Catch for us the Foxes
    
Intro:
[ Tab from: http://www.guitartabs.cc/tabs/m/mewithoutyou/my_exit_unfair_tab.html ]
E|-----------------------------------------------------------------------12-|
B|-----------------------------------------------------------------------12-|
G|---------9----9/7----------------9----9/7---------------9----14--------10-| 
D|-9--12---9----------9----9--12---9---------9----9--12---9----14-12p0-9-10-|
A|---------7----------9------------7---------9------------7----12-----------|
E|-------------------7----------------------7------------------------------|

E|--------------------------------------------------------------------------|
B|--------------------------------------------------------------------------|
G|-------------------9------------------------------------------------------| 
D|-9/5---7----10/9---9------------------------------------------------------|
A|-------7-----------7------------------------------------------------------|
E|-------5-----------7------------------------------------------------------|
Comments