Mewithoutyou - Disaster Tourism Chords & Tabs

 

Disaster Tourism Chords & Tabs

Mewithoutyou Chords & Tabs

Version: 2 Type: Tab 0 ratings
1 star 2 stars 3 stars 4 stars 5 stars
comments

Disaster Tourism Tab

   
-------------------------------------------------------------------------------
			     DISASTER TOURISM - Mewithoutyou
-------------------------------------------------------------------------------
Tabbed by: Dave Riedstra
Email: dav0_12@hotmail.com

Tuning: Standard (EADGBe)

Notes: This is the complete version. I had earlier just submitted the intro,
 but with some prodding I finished the entire thing. The intro (in Guitar 1)
 is all straight eighth notes and sounds a bit like"Crazy Train". It continues
 throughout the first half of the song.

 This is NOT the first song I've tabbed, but it IS the first one I've put on the
 net, so email me with feedback, please. And no, I'm not asking you to "take it 
 easy on me"
   Enjoy!

[edit] Apparently I botched up on the intro. I found a different, correct version
of the intro, and decided to put the way that I play it here.

INTRO:
  Guitar 1 [distortion, reverb]
e|---------------------------------------------------------------------------|
B|---------------------------------------------------------------------------|
G|---------5----------------------------------------------------------------.|
D|------7----5-7------------------------------------------------------------.|
A|--3/5---8------5--8-8-8--7-7-7--5-5----------------------------------------|
E|---------------------------------------------------------------------------|
 |
 |Guitar 2 [distortion, reverb, some funky wah effects that my amp didn't come with]
e|--12\--12--8---5-----5--5-8----5-8-5-8---{12}\-----------------------------|
B|--12\----------------------------------------------------------------------|
G|---------------------------------------------------------------------------|
D|---------------------------------------------------------------------------|
A|------------------------------------------------(Funky chord)--------------|
E|----------------------------------------------(slide up effect with wah)---|

VERSE 1:
  Guitar 2 [distortion, reveb, wah and delay as needed (their guitarist has alot of pedals)]
e|------------------12-------------------------12----------------------------|
B|--9h10--9-9h10----10-13-10----9h10--9-9h10---10-------------(repeat)-------|
G|---------------------------------------------------------------------------|
D|---------------------------------------------------------------------------|
A|---------------------------------------------------------------------------|
E|---------------------------------------------------------------------------|

e|---------------12--17------------------------------------------------------|
B|--9---9-9h13/*-------------------------------------------------------------|
G|---------------------------------------------------------------------------|
D|---------------------------------------------------------------------------|
A|---------------------------------------------------------------------------|
E|---------------------------------------------------------------------------|
[ Tab from: http://www.guitartabs.cc/tabs/m/mewithoutyou/disaster_tourism_tab_ver_2.html ]
  Tremolo part. You can bend for {22} if you want, but I'm not sure if he does.
  Guitar 2 [distortion, reverb, repeats, among others]
e|--{17--19-20--17-19-20--22-20--19-17-19--17-19\}---------------------------|
B|---------------------------------------------------------------------------|
G|---------------------------------------------------------------------------|
D|---------------------------------------------------------------------------|
A|---------------------------------------------------------------------------|
E|---------------------------------------------------------------------------|

BREAK:
  This is where Guitar 1 breaks with his pattern and starts a different one.
  This is closer than my last attempt, I'm pretty sure. (the notes in brackets
  are the softer, quicker ones.) This is repeateated until the next riff. I
  Don't think guitar one plays again until the normal pattern is resumed, so if
  your giutar 1 player is getting bored, he can just hit some random "e|-7-"s.
  
  Guitar 1 [distortion, reverb]
e|---------------------------------------------------------------------------|
B|---------------------------------------------------------------------------|
G|-----------2----------------2---------------2------------------------------|
D|-7-5-2---2------(2)-------2-----(2)-------2-----(2)--------7--5--2---------|
A|-5-3-0--------(5)-(5-3-5)-----(5)-(5-3-5)-----(5)-(5-3-5)--5--3--0---------|
E|---------------------------------------------------------------------------|

  After this riff, the intro riff is repeated until the outro by Guitar 1.
  Also, the riff that is played by guitar 2 during the first verse (tremolo 
  part as well) is played again.
e|---------------------------------------------------------------------------|
B|---------------------------------------------------------------------------|
G|---------------------------------------------------------------------------|
D|--5--5--5-5----------------------------------------------------------------|
A|--3--3--3-3--3--3/5--------------------------------------------------------|
E|---------------------------------------------------------------------------|

OUTRO:
  Guitar 1 [clean, reverb, some repeats]
e|---------------------------------------------------------------------------|
B|---------------------------------------------------------------------------|
G|-2--2h4-4h5--4-4h5-5h7-5-5h7-7h9(\)---(repeated many times)----------------|
D|---------------------------------------------------------------------------|
A|---------------------------------------------------------------------------|
E|---------------------------------------------------------------------------|
 | 
 |Guitar 2's riff is repeated twice (there is an ambient guitar, kinda... but I couldn't pin it 
 |down, so this is what you get.) 
 |
 |Guitar 2 [very light distortion, I think, reverb, delay, etc.]
e|-------------12\--------------------------------|----------8-<h  hammer-on
| p  pull-off
| ~  vibrato
| +  harmonic
| x  Mute note
| {} Tremolo
===============================================================================
Comments