Mewithoutyou - Cure For Pain Chords & Tabs

 

Cure For Pain Chords & Tabs

Mewithoutyou Chords & Tabs

Version: 1 Type: Tab 0 ratings
1 star 2 stars 3 stars 4 stars 5 stars
comments

Cure For Pain Tab

   
Petey D.
|Guitar 1                                                     \/ Distort now
|--4---6---8---6----9~---4---6---8---6---6~---4---6---8---6-------------------|
|-(6)-(6)-(6)-(6)-(11)--(6)-(6)-(6)-(6)-(6)--(6)-(6)-(6)-(6)------------------|
|-----------------------------------------------------------------------------|
|-------------------------------------------------------------1--1-1-1-1-1-1--|
|-------------------------------------------------------------1--1-1-1-1-1-1--|
|-------------------------------------------------------------1--1-1-1-1-1-1--|
|                                                             |
|Guitar 2                                                     |
|---------------------------------------------------------------------------|
|---------------------------------------------------------------------------|
|-9-10-9-10--5-6--3-----9-10-9-10--5-6--3-----9-10-9-10--5-6--3--3-3-3-3-3--|
|-8--8-8--8--4-4--1-----8--8-8--8--4-4--1-----8--8-8--8--4-4--1--1-1-1-1-1--|
|-8--8-8--8--4-4--1-----8--8-8--8--4-4--1-----8--8-8--8--4-4--1--1-1-1-1-1--|
|-8--8-8--8--4-4--1-----8--8-8--8--4-4--1-----8--8-8--8--4-4--1--1-1-1-1-1--|

|Guitar 1+2
|-----------------------------------------------------------|
|-----------------------------------------------------------|
|-----------------2-------------------2-------------------2-|
|-0---0---0---0---2---0---0---0---0---2---0---0---0---0---2-|
|-0---0---0---0---0---0---0---0---0---0---0---0---0---0---0-|
|-0---0---0---0-------0---0---0---0-------0---0---0---0-----|

|Guitar 1+2
|---------------------------------|
|---------------------------------|
|---------------------------------|
|-4-4-4-4-4-4-4-4-1-1-1-1-1-1-1-1-|
|-4-4-4-4-4-4-4-4-1-1-1-1-1-1-1-1-|
|-4-4-4-4-4-4-4-4-1-1-1-1-1-1-1-1-|

|Guitar 1+2
|-----------------------------------------------------------|
|-----------------------------------------------------------|
|-----------------2-------------------2-------------------2-|
|-0---0---0---0---2---0---0---0---0---2---0---0---0---0---2-|
|-0---0---0---0---0---0---0---0---0---0---0---0---0---0---0-|
|-0---0---0---0-------0---0---0---0-------0---0---0---0-----|

|Guitar 1+2 x2 3/4
|---------------------------------|
|---------------------------------|
|---------------------------------|
|-4-4-4-4-4-4-4-4-1-1-1-1-1-1-1-1-|
|-4-4-4-4-4-4-4-4-1-1-1-1-1-1-1-1-|
|-4-4-4-4-4-4-4-4-1-1-1-1-1-1-1-1-|

|Guitar 1+2 (play everything before the | 3x)(play overall 2x)
|-------------------------------|-----------------|
|-------------------------------|-----------------|
|-------------------------------|-----------------|
|-8-8-8-8-4-4-4-1-1-1-1-1-1-1-1-|-8-8-8-8-4-4-4-1-|
|-8-8-8-8-4-4-4-1-1-1-1-1-1-1-1-|-8-8-8-8-4-4-4-1-|
|-8-8-8-8-4-4-4-1-1-1-1-1-1-1-1-|-8-8-8-8-4-4-4-1-|
[ Tab from: http://www.guitartabs.cc/tabs/m/mewithoutyou/cure_for_pain_tab.html ]
|Guitar 1 (Play guitar 2's part once, then play)
|---------------------------------------------------------------------------|
|----------------6--6-----------6--6----------------------------------------|
|-----------------6--6-----------6--6---------------------------------------|
|-Guitar 2's part--8--8-/10-/8----8--8-/10-/11-/13-/14-/15-15-15-15-10h11-8-|
|---------------------------------------------------------------------------|
|---------------------------------------------------------------------------|
|
|Guitar 2 x2 1/2
|------------------------------------------|
|------------------------------------------|
|-9-10-9-10--5-6--3-----9-10-9-10--5-6--3--|
|-8--8-8--8--4-4--1-----8--8-8--8--4-4--1--|
|-8--8-8--8--4-4--1-----8--8-8--8--4-4--1--|
|-8--8-8--8--4-4--1-----8--8-8--8--4-4--1--|


|Guitar 2 (Plays for pretty much the rest of the song with just effects and loops throw over top of it)
|-----------------------------------------|
|-----------------------------------------|
|-10-10-10-10-10-10-10-10-3-3-3-3-3-3-3-3-|
|--x--x--x--x--x--x--x--x-x-x-x-x-x-x-x-x-|
|--8--8--8--8--8--8--8--8-1-1-1-1-1-1-1-1-|
|-----------------------------------------|
|
|Guitar 1
|---------------------------------------------------------------------------|
|---------------------------------------------------------------------------|
|-10-10-10-10-3-3-3-3-10-10-10-10-6-6-6-6-3-3-3-3-6-6-6-6-10-10-11-6-6-6-6--|
|--x--x--x--x-x-x-x-x--x--x--x--x-x-x-x-x-x-x-x-x-x-x-x-x--x--x--x-x-x-x-x--|
|--8--8--8--8-1-1-1-1--8--8--8--8-4-4-4-4-1-1-1-1-4-4-4-4--8--8--9-4-4-4-4--|
|---------------------------------------------------------------------------|

|Guitar 1 (...=tremolo pick)(solo timing not shown, so be on the look out)
|------------13.........13--13----------------13--13----13--------------------|
|------------------------14--14---13h14-13h14--14--14-------------------------|
|-3-3-3-3-6-6-6-6---------15--15----------------15--15---15---15h17-15h17-15--|
|-x-x-x-x-x-x-x-x-------------------------------------------------------------|
|-1-1-1-1-4-4-4-4-------------------------------------------------------------|
|-----------------------------------------------------------------------------|

|---------------------------------------------------------------------------|
|------------------------------------14-------------------------------------|
|-17h15h17-18-17h15--13-15-15-15-15-----13-15-15-17-15--13-15-15-17-15--15~-|
|---------------------------------------------------------------------------|
|---------------------------------------------------------------------------|
|---------------------------------------------------------------------------|

|-13.-14.-16.-18.-20.-21.-20.-18.-16.-14-13-----------------------------------|
|-----------------------------------------14-13-14-13----13-14-13--14-----13--|
|------------------------------------------15----------15------------13-15-15-|
|-----------------------------------------------------------------------------|
|-----------------------------------------------------------------------------|
|-----------------------------------------------------------------------------|

|------------------13/---13-xaround72-13-----------------------------------|
|---------13---------------------------14--(then just start hitting notes)-|
|-13-15------15-15~---------------------15-(on scale and add effects a )---|
|------------------------------------------(little later)------------------|
|--------------------------------------------------------------------------|
|--------------------------------------------------------------------------|

Very End (Just start hitting this note randomly)
|---
|-6-
|-9-
|---
|---
|---
Comments