Mew - Special Chords & Tabs

 

Special Chords & Tabs

Mew Chords & Tabs

Version: 1 Type: Tab 0 ratings
1 star 2 stars 3 stars 4 stars 5 stars
comments

Special Tab

   
MEW - Special

Tabbed by: Tonoko?

INTRO 

Riff (same riff is also in verses)
 Cm			   Gm
|-------------------------|-------------------------|
|-------------------------|-------------------------|
|-------------------------|-------------------------|
|---3-----3-----3-----3---|---0---1---0---0---1-0---| x2
|-3---5-6---5-----5-6---5-|-----1---1-------1-------|
|-------------------------|-3---------------------3-|

Cm Eb Gm Bb (continue intro riff)

VERSE: 

(continue intro riff)

Cm		Eb	      Gm	     Bb
you're special, you're like a rocket through me, ohh
Cm		    Eb		    Gm		Bb
you're special, you're a rocket to me, and i cannot this time


PRE CHORUS:

 1	2	3	4	1	2	3	4   1	2
|-----------------------------|---------------------------|-------|
|-----------------------------|---------------------------|-------|
|-----------------------------|---------------------------|-------|
|-----------------------------|---------------------------|-------|
|-3----3----3----3------1-----|-1----5----5----5----5---0-|-0---0-|
|-3----3----3----3------3-----|-3----6----6----6----6---1-|-1---1-|
[ Tab from: http://www.guitartabs.cc/tabs/m/mew/special_tab.html ]
 1	2	3	4
|-------------------------|
|-------------------------|
|-------------------------| x2
|-------------------------|
|-6----6----6----6------1-|
|-4----4----4----4------1-|


Agarina, you can't say no
Agarina, this time you will go

VERSE:

Cm		Eb	      Gm	     Bb
you're special, you're like a rocket through me, ohh
Cm		Eb		   Gm		Bb
you're special, you're a rocket to me, and i cannot this time
Cm			 Eb
There's a taste that you can't shake
	Gm			Bb
but you can't seem to let them go awry
Cm		       Eb		       Gm
I know you're special, ohh, you're a rocket to me
	   Bb
At this surprised, all the time


CHORUS:

Cm F		         Bb
I  know what you said to me
	    Gm		     Cm
And I don't care at the same time
		  F	 Bb
But i'll take you up and down
F
Address is to you

VERSE

PRE CHORUS

CHORUS:

Cm F		         Bb
I  know what you said to me
	    Gm		     Cm
And I don't care at the same time
		  F	 Bb
But i'll take you up and down
Gm	      Cm
Address is to you, (honey bee)
   F		         Bb
I  know what you said to me
	    Gm		     Cm
And I don't care at the same time
		  F	Bb
And what do you stay to do
  Gm
I saw thw worst of you

(Fine Ab)
Comments