Mew - Snow Brigade Chords & Tabs

 

Snow Brigade Chords & Tabs

Mew Chords & Tabs

Version: 1 Type: Tab 0 ratings
1 star 2 stars 3 stars 4 stars 5 stars
comments

Snow Brigade Tab

   
Mew - Snow Brigade from frengers
 
   A                                F
Enable to bring out the something
                 G                         D        A
You want to know beneath the snow
 
   A                      F
In winter you’re an affliction 
                   G             D         E
That repeatedly defeated me
 
 
  F                      A       G
Because I'll find you somewhere
  Em                F
Show you how much I care
  F                    C    G    Em  
Know that there is no escape
             F
From my snow brigade
 
(G)               F
Bring out the someone
                    G                    D        E
You´ll need to see, for jealousy
 
A                                      F
We all know, one day you´ll leave behind
               G
Your everything
                    D      E
And feel the spring come
 
  F                A  G  
I’ll find you somewhere
  Em                      F
Show you how much I care
  F                    C    G       Em
Know that there is no escape
                F
From my snow brigade
 
 

 

Guitar 1:
----------------------------------------------------------------------------
----------------------------------------------------------------------------
----------------------------------------------------------------------------
----------------------------------------------------------------------------
--0-0-0-0-0------------------------3---0-0-0-0------------------------------
----------------0-0-0-0--1-1-1-1---------------1-1-1-1--3-3-3-3--0-0-0-0-0--
 
 
Guitar 2:
------------------------------------------------------------------------
----------------------------------------5-------------------------------
---5-5-5-5-5--0-0-0-0--2-2-2-2----5-5-5-5--7-7-7-7-4-4-4-4-4-4-4-5-4----
------------------------------------------------------------------------
------------------------------------------------------------------------
------------------------------------------------------------------------
 
 
 
 
 
My arms retreat
 
I wish they were there to hold you
 
Am G
 
  F                A    G
I’ll find you somewhere
  E                  F
Show you how much I care
  F                   C   G    E
know that there is no escape
             F
From my snow brigade   
[ Tab from: http://www.guitartabs.cc/tabs/m/mew/snow_brigade_tab.html ]
Comments