Mew - She Spider Chords & Tabs

 

She Spider Chords & Tabs

Mew Chords & Tabs

Version: 3 Type: Tab 0 ratings
1 star 2 stars 3 stars 4 stars 5 stars
comments

She Spider Tab

   
Mew - She Spider (Listened from BBC Session 2003 and Frengers)

Tabbed by: Tonoko?

INTRO: (x2)

 Guitar 1
|-2----------------|---------3----5---|-7----------------|---------9--/10---|
|------------------|------------------|------------------|------------------|
|------------------|------------------|------------------|------------------|
|------------------|------------------|------------------|------------------|
|------------------|------------------|------------------|------------------|
|------------------|------------------|------------------|------------------|
|
|Guitar 2
|------------------|------------------|------------------|------------------|
|-7----------------|-5-------8----7---|-3----------------|-----------0------|
|------------------|------------------|------------------|------------------|
|------------------|------------------|------------------|------------------|
|------------------|------------------|------------------|------------------|
|------------------|------------------|------------------|------------------|

 Guitar1
|-7------9---------|------------------|-9----------------|-10--/12----------|
|------------------|------------------|------------------|------------------|
|------------------|------------------|------------------|------------------|
|------------------|------------------|------------------|------------------|
|------------------|------------------|------------------|------------------|
|------------------|------------------|------------------|------------------|
|
|Guitar 2
|-0----------------|------------------|------------------|------------------|
|--------2---------|------------------|------------------|------------------|
|------------------|----------2----0--|------------------|------------------|
|------------------|------------------|-4----------------|-2----------------|
|------------------|------------------|------------------|------------------|
|------------------|------------------|------------------|------------------|

VERSE:
   
After we, go to sleep
Our sun rise
I will make it the truth 
of painfully
Helping me cover up things
I wish I never had found

(Play each of these 16 times..)
  Bm  A  E   D  F#
|-----------------|
|-----------------| 
|-----------------|
|--0--4-----(4)---|
|--2--0--10--5--4-|
|---------0--5--2-|

INTRO x 1

PRE CHORUS:
[ Tab from: http://www.guitartabs.cc/tabs/m/mew/she_spider_tab_ver_3.html ]
 Guitar 1
|-2----------------|----------5---3---|-2----------------|-0----------------|
|------------------|------------------|------------------|------------------|
|------------------|------------------|------------------|------------------|
|------------------|------------------|------------------|------------------|
|------------------|------------------|------------------|------------------|
|------------------|------------------|------------------|------------------|
|
|Guitar 2
|------------------|------------------|------------------|------------------|
|-7----------------|-5-------8----7---|-3----------------|-----------0------|
|------------------|------------------|------------------|------------------|
|------------------|------------------|------------------|------------------|
|------------------|------------------|------------------|------------------|
|------------------|------------------|------------------|------------------|

 Guitar1
|-3-h5-------------|------------------|------------------|------------------|
|--------2---------|------------------|-3----------------|-2--------s5------|
|-------------4----|------------------|------------------|------------------|
|------------------|------------------|------------------|------------------|
|------------------|------------------|------------------|------------------|
|------------------|------------------|------------------|------------------|
|
|Guitar 2
|-0----------------|------------------|------------------|------------------|
|--------2---------|------------------|------------------|------------------|
|------------------|----------2----0--|------------------|------------------|
|------------------|------------------|-4----------------|-2----------------|
|------------------|------------------|------------------|------------------|
|------------------|------------------|------------------|------------------|


CHORUS:

B	   A           G
Confident, tangled up in a nice life
D               F#
Put the spider in you
B	     A
Watching in, disregard
     G
You live a nice life 
D                   F#
With the spider and you

BRIDGE:

D              G
I saved myself
    Em        Bm
For someone somewhere's
A
Sweet caress
D                G
Something goes wrong
     Em     Bm       A
And all I sought was happiness


PRE CHORUS

CHORUS

SOLO: Chords (Same as in VERSE): Bm A E D F#

BRIDGE

BRIDGE 2:

     D		      G
And so, in right wing fashion
     Em       Bm
We'll nurture xenophobia
A       D		     G
And be strong, in right wing fashion
      Em      Bm       A
With paste and generosity
          D           G
Because no one is safe
      Em     Bm
From someone somewhere's
A
Sweet embrace
       D         G      
And so I have simply 
Em
decided
Bm      A
To dislike you now

FINE D
Comments