Mew - She Spider Chords & Tabs

 

She Spider Chords & Tabs

Mew Chords & Tabs

Version: 2 Type: Tab 0 ratings
1 star 2 stars 3 stars 4 stars 5 stars
comments

She Spider Tab

   
Mew - She Spider

Intro:
e|----------5--7--7--9--10--7--9-----9--10--12---|
B|-7--5--7------------------------7--------------|
G|-----------------------------------------------| x 2
D|-----------------------------------------------|
A|-----------------------------------------------|
E|-----------------------------------------------|


Pre-Chorus:
e|-------5---------------------------------------|
B|-7--5-----8--7--5------------------------------|
G|-------------------4--7-9--6--7--6--9----------|
D|-----------------------------------------------|
A|-----------------------------------------------|
E|-----------------------------------------------|

Verse:
B        A       
After we go to sleep
G
Our sun rise
D                    F#  
I will make it the truth 
   B
of painfully
A           G
Helping me cover up things
D               F#
I wish I never had found


Pre-chorus X 1

Chorus:
[ Tab from: http://www.guitartabs.cc/tabs/m/mew/she_spider_tab_ver_2.html ]
B
Confident
A           G
Tangled up in a nice life
D               F#
Put the spider in you

B
Watching in
A
Disregard
     G
You live a nice life 
D                   F#
With the spider and you

Bridge:

D              G
I saved myself
    Em        Bm
For someone somewhere's
A
Sweet caress

D                G
Something goes wrong
     Em     Bm          A
And all I sought was happiness


Pre-chorus


Chorus 


Solo


Bridge

     D
And so
               G
In right wing fashion
     Em       Bm
We'll nurture xenophobia
A       D
And be strong
              G
In right wing fashion
      Em      Bm       A
With paste and generosity
          D           G
Beacause no one is safe
      Em     Bm
From someone somewhere's
A
Sweet embrace
       D         G      
And so I have simply 
Em
decided
Bm      A
To dislike you now


Ends with D
Comments