Mew - Her Voice Is Beyond Her Years Chords & Tabs

 

Her Voice Is Beyond Her Years Chords & Tabs

Mew Chords & Tabs

Version: 1 Type: Tab 0 ratings
1 star 2 stars 3 stars 4 stars 5 stars
comments

Her Voice Is Beyond Her Years Tab

   
-----------------------------------------------------------------------
               HER VOICE IS BEYOND HER YEARS - Mew
-----------------------------------------------------------------------

Tabbed by: Kenneth Skertchly
Email: kenneth@knetcomputacion.com


Tuning: The song is tuned half step up (FCG#D#A#F) on the CD, but there is a
version out there which is played with normal tuning.

Intro:  (x2)

G5 D5 E5 B5

D5              A5
Her Voice is Beyond Her Years

        E5       B5
she's trying to move you

G5                 D5
she did not know where to go

     E5          B5
and soon it was dark


G5                              G5
If I could look you in the eyes

B5                              D5
If I could look you in the eyes


Bridge:   (x2)
[ Tab from: http://www.guitartabs.cc/tabs/m/mew/her_voice_is_beyond_her_years_tab.html ]
   G5                                         D5
e--10------9------------------------------10-------9---------------------|
B------7---------------------------------------7-------------------------|
G--7--------------------------------------7------------------------------|
D------------------------------------------------------------------------|
A------------------------------------------------------------------------|
E------------------------------------------------------------------------|
	    I couldn't let you go	            I couldn't let you go

   E5       B5
e-------------17----------------------|
B-------------------19----------------|
G---16---18---------------------------|
D-------------------------------------|
A-------------------------------------|
E-------------------------------------|

Her Voice is Beyond Her Years
please try not to move her
at least it was her mistake
hers alone to make

If I could look you in the eyes
If I could look you in the eyes
Comments