Mew - Comforting Sounds Chords & Tabs

 

Comforting Sounds Chords & Tabs

Mew Chords & Tabs

Version: 4 Type: Tab

Comforting Sounds Tab

   
Intro

e|---------------------------------------------------|
B|---------------------------------------------------|
G|---------------------------------------------------|
D|-------11----------11----------11----------11------|
A|-12-12----12-12-12----12-12-12----12-12-12----12/--|
E|---------------------------------------------------|

e|-----------------------------------------------------------------|
B|-----------------------------------------------------------------|
G|-----------------------------------------------------------------|
D|-----6-------6-------6------6-------4------4-------4-------4-----|
A|-7-7---7-7-7---7-7-7---7-7-7--7/5-5---5-5-5--5-5-5---5-5-5---5/--|
E|-----------------------------------------------------------------|

e|-----------------------------------------------------------------------------------------------------------------------|
B|---------------------------------------------------------------3-------3-------3-------3------5------5------5------5---|
G|-6-6--6-6-6--6-6-6--6-6-6--6/------------------------------------------------------------------------------------------|
D|-7-7--7-7-7--7-7-7--7-7-7--7/-6-6--6-6-6--6-6-6--6-6-6--6/-4-4---4-4-4---4-4-4---4-4-4---4/6-6--6-6-6--6-6-6--6-6-6--6-|
A|------------------------------7-7--7-7-7--7-7-7--7-7-7--7/-5-5---5-5-5---5-5-5---5-5-5---5/7-7--7-7-7--7-7-7--7-7-7--7-|
E|-----------------------------------------------------------------------------------------------------------------------|


Verse

e|------5------5------5------5---------------------------------|
B|---------------------------------5------5------5------5------|
G|--6-6--6-6-6--6-6-6--6-6-6--6--------------------------------|
D|--7-7--7-7-7--7-7-7--7-7-7--7-6-6--6-6-6--6-6-6--6-6-6--6----|
A|------------------------------7-7--7-7-7--7-7-7--7-7-7--7----|
E|-------------------------------------------------------------|
                                                                       REPEAT 2x
e|---------------------------------------|
B|----3------3------3------3-------------|
G|---------------------------------------|
D|-4-4--4-4-4--4-4-4--4-4-4--4-----------|
A|-5-5--5-5-5--5-5-5--5-5-5--5-----------|
E|---------------------------------------|


Chorus

e|-----0------0-----0-----0-----4----4----4----4-----2----2----5----5----5---5-|
B|-----5------5-----5-----5-----5----5----5----5-----5----5----3----3----3---3-|
G|------------------------------6----6----6----6-------------------------------|  REPEAT 2x
D|-7-7---7-7---7-7----7-7-------7----7----7----7--4-4--4-4--0-0--0-0--0-0--0-0-|
A|-0-0---------0-0----------4-4--4-4--4-4--4-4---------------------------------|
E|-----------------------------------------------------------------------------|


Play Verse With keyboard ( Arranged for guitar )
[ Tab from: http://www.guitartabs.cc/tabs/m/mew/comforting_sounds_tab_ver_4.html ]
e|-17-17-17-17-17-17-17-17-17-17-17-17-19-19-19-19-16-16-16-16-16-16-16-16-16-16-16-16-17-17-17-17-

e|--14-14-14-14-14-14-14-14-14-14-14-14-14-14-14-14--|    REPEAT 2x


2nd Chorus

e|-----0------0-----0-----0-----4----4----4----4-----2----2----5----5----5---5-|
B|-----5------5-----5-----5-----5----5----5----5-----5----5----3----3----3---3-|
G|------------------------------6----6----6----6-------------------------------|
D|-7-7---7-7---7-7----7-7-------7----7----7----7--4-4--4-4--0-0--0-0--0-0--0-0-|
A|-0-0---------0-0----------4-4--4-4--4-4--4-4---------------------------------|
E|-----------------------------------------------------------------------------|


Again play Verse With keyboard ( Arranged for guitar )

e|-17-17-17-17-17-17-17-17-17-17-17-17-19-19-19-19-16-16-16-16-16-16-16-16-16-16-16-16-17-17-17-17-

e|--14-14-14-14-14-14-14-14-14-14-14-14-14-14-14-14--|    REPEAT 2x


Some sort of guitar solo

e|-14-14-14-14-14-14-14-12-12-12-12-12-12-14-12-14-9-9-9-9-9-9-9-

  -7-7-7-7-7-7-7-7-2-9-9-9-9-9-9-9-2-7-7-7-7-7-7-7-7-7-2-2-2-2-2-2-2-2-2-2-2-2-2-2-2---  
2x

When the drum comes in play this chords

    A     e      B#   D
e|-----5-----0---2----5-------|
B|-----5-----0---3----7-------|
G|-----6-----1---4----7-------|          Repeat 2x
D|-7-7---2-2-----4----7-------|
A|-7-7---2-2-----2----5-------|
E|-5-5---0-0------------------|

    A       D    B#   C#  D
e|-----5----5----2----4---5----|
B|-----5----7----3----5---7----|
G|-----6----7----4----6---7----|
D|-7-7------7----4----6---7----|
A|-7-7------5----2----4---5----|
E|-5-5-------------------------|

    A     e      Bm   D
e|-----5-----0---2----5-------|
B|-----5-----0---3----7-------|
G|-----6-----1---4----7-------|
D|-7-7---2-2-----4----7-------|   This is when the drums changed from close hats to open hats
A|-7-7---2-2-----2----5-------|
E|-5-5---0-0------------------|

    A       D    Bm   C#m  D
e|-----5----5----2----4---5----|
B|-----5----7----3----5---7----|
G|-----6----7----4----6---7----|
D|-7-7------7----4----6---7----|   Repeat until the end of the song
A|-7-7------5----2----4---5----|
E|-5-5-------------------------|


Guitar riff before ending ( Tremolo picking )
e|-------------------------------------------------------|
B|-10-12-14-15-14-17-15-14-12-10-12-7-7------------------|
G|-------------------------------------------------------|
D|-------------------------------------------------------|
A|-------------------------------------------------------|
E|-------------------------------------------------------|


Ending

   A
e|-5-----------|
B|-5-----------|
G|-6-----------|
D|-7-----------| Keep strumming
A|-7-----------|
E|-5-----------|