Mew - Comforting Sounds Chords & Tabs

 

Comforting Sounds Chords & Tabs

Mew Chords & Tabs

Version: 3 Type: Tab

Comforting Sounds Tab

INTRO
this part is done by two guitars, but it sounds exactly the same if only one
does it. if you want to look "professional", guitar 1 plays the "lower part" and
guitar two plays the "upper part": 
E-----------------------------------------------------
B-----------------------------------------------------
G--------6-------------6-------------6------------6---- upper part (guitar2)
D--7--7-----7----7--7-----7----7--7----7----7--7-----7- lower part (guitar1)
A-----------------------------------------------------
E-----------------------------------------------------

E-----------------------------------------------------
B-----------------------------------------------------
G--------1-------------1-------------1------------1---- upper part (guitar2)
D--2--2-----2----2--2-----2----2--2----2----2--2----2-- lower part (guitar1)
A-----------------------------------------------------
E-----------------------------------------------------

E-------------------------------------------------------
B-------------------------------------------------------
G-------------------------------------------------------
D--------4-------------4-------------4-------------4--- upper part (guitar2)
A--5--5-----5----5--5-----5----5--5-----5----5--5-----5-lower part (guitar1)
E-------------------------------------------------------
[ Tab from: http://www.guitartabs.cc/tabs/m/mew/comforting_sounds_tab_ver_3.html ]
verse intro (i put this name because the verse follows a similar pattern)

E-----------------------------------------------------------------------
B-----------------------------------------------------------------------
G--6--6-----6--6--6-----6--6--6-----6--6--6-----6--1--1-----1--1--1-----
D--7--7-----7--7--7-----7--7--7-----7--7--7-----7--2--2-----2--2--2-----
A-----------------------------------------------------------------------
E-----------------------------------------------------------------------

E-----------------------|------------|------------|------------|-----------|
B-----------------------|------------|------------|------------|-----------|
G--1--1--1-----1--1--1--|--1---------|------------|------------|-----------|
D--2--2--2-----2--2--2--|--2--4--4---|-4--4--4----|-4--4--4----|-4--4--4---|
A-----------------------|-----5--5---|-5--5--5----|-5--5--5----|-5--5--5---|
E-----------------------|------------|------------|------------|-----------|
                        |            |            |            |           |
fill 1 (follow the rhythm)           |            |            |           |
                        |            |            |            |           |
B-----------------------|----------3-|----------3-|----------3-|----------3|


chorus

E--------0---------0---
B----------------------
G----------------------
D--7--7------7--7------7--7
A----------------------
E----------------------

OUTRO