Mew - Comforting Sounds Chords & Tabs

 

Comforting Sounds Chords & Tabs

Mew Chords & Tabs

Version: 2 Type: Tab 0 ratings
1 star 2 stars 3 stars 4 stars 5 stars
comments

Comforting Sounds Tab

Mew: comforting sound

e-------------------------------------------------------------
b-------------------------------------------------------------
g-------------------------------------------------------------
d---------11-------------11--------------11--------------11---
a--12--12----12--12--12------12--12--12------12--12--12----12-
e-------------------------------------------------------------

e-------------------------------------------------------------
b-------------------------------------------------------------
g-------------------------------------------------------------
d--------6----------6-----------6-----------6-----------------
a--7--7----7--7--7-----7--7--7-----7--7--7-----7--------------
e-------------------------------------------------------------
[ Tab from: http://www.guitartabs.cc/tabs/m/mew/comforting_sounds_tab_ver_2.html ]
e-------------------------------------------------------------
b-------------------------------------------------------------
g-------------------------------------------------------------
d--------4----------4-----------4-----------4-----------------
a--5--5----5--5--5-----5--5--5-----5--5--5-----5--------------
e-------------------------------------------------------------

a--12-12--12-12-12--12-12-12--12-12-12--12--------------------

a--7-7--7-7-7--7-7-7--7-7-7--7--------------------------------

a--5-5--5-5-5--5-5-5--5-5-5--5--------------------------------
der bliver spillet det samme gennem hele sangen, dog nogle forandringer,
men jeg gider ikke skrive det samme i 10 min. Prøv jer frem. Kristoffer

det er 100% rigtigt. men mail mig lige, hvis i vil have flere af deres sange ind
Kristofferjulemand@jubiimail.dk
Comments