Metric - Empty Chords & Tabs

 

Empty Chords & Tabs

Metric Chords & Tabs

Version: 1 Type: Tab 0 ratings
1 star 2 stars 3 stars 4 stars 5 stars
comments

Empty Tab

   
Empty - Metric
Live It Out
2005

Tuning: eBEDAD

Tabbed by: Seditionary07

Intro and Verse
e------------------------------------|
B------------------------------------|
E------------------------------------|
D---7---5---7---9---4---4---4---2----|
A--5-5-5-5-5-5-5-5-2-2-2-2-2-2-2-2---|
D-5---5---5---5---2---2---2---2------| x4

e------------------------------------|
B------------------------------------|
E---0---0---0---0---0---0---0---0----|
D--2-2-2-2-2-2-2-2-4-4-4-4-4-4-4-4---|
A-3---3---3---3---5---5---5---5------|
D------------------------------------|

e------------------------------------|
B------------------------------------|
E---0---0---0---0---0---0---0---0----|
D--2-2-2-2-2-2-2-2-0-0-0-0-4-4-4-4---|
A-3---3---3---3---2---2---5---5------|
D------------------------------------|

e------------------------------------|
B------------------------------------|
E---0---0---0---0---0---0---0---0----|
D--2-2-2-2-2-2-2-2-4-4-4-4-4-4-4-4---|
A-3---3---3---3---5---5---5---5------|
D------------------------------------|

e------------------------------------|
B------------------------------------|
E---0---0---0---0---0---0---0---0----|
D--5-5-5-5-5-5-5-5-5-5-5-5-5-5-5-5---|
A-7---7---7---7---7---7---7---7------|
D------------------------------------|

Play Above Agawin
[ Tab from: http://www.guitartabs.cc/tabs/m/metric/empty_tab.html ]
Chorus
e----------------------------------------------------|
B----------------------------------------------------|
E----------------------------------------------------|
D-33-0-2-33-0-2-33-0-2-33\0-77-7-1010-10-55-5-1010\0-|
A-33-0-2-33-0-2-33-0-2-33\0-77-7-1010-10-55-5-1010\0-|
D-33-0-2-33-0-2-33-0-2-33\0-77-7-1010-10-55-5-1010\0-| x12

Solo...?
e------------------------------------|
B------------------------------------|
E------------------------------------|
D------------------------------------|
A------------------------------------|
D-77-10-7-55-10-5-77-10-7-55-10-5----| x8

Bridge
  slowly fade out
e------------------------------------|
B------------------------------------|
E------------------------------------|
D-77-7--1010-55-5-1010---------------|
A-77-7--1010-55-5-1010---------------|
D-77-7--1010-55-5-1010---------------| x12

Outro
e------------------------------------|
B------------------------------------|
E------------------------------------|
D---7---5---7---9---4---4---4---2----|
A--5-5-5-5-5-5-5-5-2-2-2-2-2-2-2-2---|
D-5---5---5---5---2---2---2---2------| x8

e------------------------------------|
B------------------------------------|
E---0---0---0---0---0---0---0---0----|
D--2-2-2-2-2-2-2-2-4-4-4-4-4-4-4-4---|
A-3---3---3---3---5---5---5---5------|
D------------------------------------|

e------------------------------------|
B------------------------------------|
E---0---0---0---0---0---0---0---0----|
D--2-2-2-2-2-2-2-2-0-0-0-0-4-4-4-4---|
A-3---3---3---3---2---2---5---5------|
D------------------------------------|

e------------------------------------|
B------------------------------------|
E---0---0---0---0---0---0---0---0-0--|
D--2-2-2-2-2-2-2-2-4-4-4-4-4-4--4-2--|
A-3---3---3---3---5---5---5---5-5-3--|
D------------------------------------|

Live Long And Prosper

Seditionary07@asianavenue.com
Comments