Metric - Dead Disco Chords & Tabs

 

Dead Disco Chords & Tabs

Metric Chords & Tabs

Version: 2 Type: Bass Tab 0 ratings
1 star 2 stars 3 stars 4 stars 5 stars
comments

Dead Disco Bass Tab

I noticed the other tab for this wasn't completely accurate, so I submitted the one I
made a while ago. Enjoy.

Intro:
G|---------------------------------1-1---1-1-1---1-------------1---|
D|-----------------1-1---1-1-1---1-----------------3-3---3-1-3---3-|
A|-3-3---3-3-3---3-------------------------------------------------|
E|-----------------------------------------------------------------| ...3x

G|---------------------------------1-1---1-1-1---1---------3-3-1---|
D|-----------------1-1---1-1-1---1-----------------3-3---3-------3-|
A|-3-3---3-3-3---3-------------------------------------------------|
E|-----------------------------------------------------------------|

Verse:
G|---------------------------------1-1---1-1-1---1-------------1---|
D|-----------------1-1---1-1-1---1-----------------3-3---3-1-3---3-|
A|-3-3---3-3-3---3-------------------------------------------------|
E|-----------------------------------------------------------------| ...2x

Chorus:
G|-----------------------------------------------------------------|
D|-----------------3-3-3-3-3-3-3-3-1-1-1-1-1-1-1-1-3-3-3-3---------|
A|-3-3-3-3-3-3-3-3-----------------------------------------1---1-2-|
E|-----------------------------------------------------------3-----| ...4x
[ Tab from: http://www.guitartabs.cc/tabs/m/metric/dead_disco_btab_ver_2.html ]
Verse:
G|---------------------------------1-1---1-1-1---1-------------1---|
D|-----------------1-1---1-1-1---1-----------------3-3---3-1-3---3-|
A|-3-3---3-3-3---3-------------------------------------------------|
E|-----------------------------------------------------------------|

G|---------------------------------1-1---1-1-1---1-----------------|
D|-----------------1-1---1-1-1---1-----------------3-------1---1-2-|
A|-3-3---3-3-3---3-------------------------------------------3-----|
E|-----------------------------------------------------------------|

G|---------------------------------1-1---1-1-1---1-------------1---|
D|-----------------1-1---1-1-1---1-----------------3-3---3-1-3---3-|
A|-3-3---3-3-3---3-------------------------------------------------|
E|-----------------------------------------------------------------|

G|---------------------------------1-1---1-1-1---1-----------------|
D|-----------------1-1---1-1-1---1-----------------3---3---3---3---|
A|-3-3---3-3-3---3-------------------------------------------------|
E|-----------------------------------------------------------------|

Chorus:
G|-----------------------------------------------------------------|
D|-----------------3-3-3-3-3-3-3-3-1-1-1-1-1-1-1-1-3-3-3-3---------|
A|-3-3-3-3-3-3-3-3-----------------------------------------1---1-2-|
E|-----------------------------------------------------------3-----| ...4x

Bridge:
G|-----------------------------------------------------------------|
D|-----------------3-3-3-3-3-3-3-3-1-1-1-1-1-1-1-1-3-3-3-3---------|
A|-3-3-3-3-3-3-3-3-----------------------------------------1---1-2-|
E|-----------------------------------------------------------3-----| ...8x

End on...
G|---------
D|---------
A|-3~~~~~~-
E|---------
Comments