Metric - Combat Baby Chords & Tabs

 

Combat Baby Chords & Tabs

Metric Chords & Tabs

Version: 1 Type: Tab 0 ratings
1 star 2 stars 3 stars 4 stars 5 stars
comments

Combat Baby Tab

   
COMBAT BABY by METRIC Transcribed by Don Govia dongovia@yahoo.com 
Verse A Palm mute 
We used to leave the blue lights on and there was a beat Ever since you have been gone it’s all caffeine-free faux punk 
fatigues Said it all before they try to kick it, their feet fall asleep Get no harm done no none of them want to fight me
E----------------------------------------------------------------------------------------------------------------
B----------------------------------------------------------------------------------------------------------------
G----------------------------------------------------------------------------------------------------------------
D----------------------------4---------6----------2----------2-----------4---------6----------2---------2----
A-----------------------2-2---2---4-4---4--0-0----0--0-0----0---2-2---2---4-4---4--0-0----0--0-0----0-
E----------------------------------------------------------------------------------------------------------------
[ Tab from: http://www.guitartabs.cc/tabs/m/metric/combat_baby_tab.html ]
Chorus 1 Down Stroke with Authority 
Combat baby come back baby Fight off the lethargy Don’t go quietly Combat baby Said you would never give up easy Combat baby 
come back
E----------------------------------------------------------------------------------------------------------------
B----------------------------------------------------------------------------------------------------------------
G--------------------------------------6--6----6--6----6--6----6--4------------------------------------------
D--5--5----5--5----6--6----6--6----6--6----6--6----6--6----6--4------------------------------------------
A--5--5----5--5----6--6----6--6----4--4----4--4----4--4----4--2------------------------------------------
E--0--0----0--0----4--4----4--4------------------------------------------------------------------------------

Verse B
Get back in town I wanna paint it black wanna get around Easy living crowd so flat Said it all before they try to kick it, their 
feet fall asleep I want to be wrong but no one here wants to fight me like you do

Chorus 2
Combat baby come back baby Fight off the lethargy Don’t go quietly Combat baby Said you would never give up easy Combat baby come 
back

Bridge Flat Pick with Down Strokes
I try to be so nice Compromise Who gets it good? Every mighty mild seventies child Every mighty mild seventies child Beats me
E----------------------------------------------------------------------------------------------------------------
B----------------------------------------------------------------------------------------------------------------
G--------------------------------------6--6----6--6----6--6----6--4------------------------------------------
D----6--6--6--6----2--2--2--2--------------------------------------------------------------------------------
A--4--4--4--4----0--0--0--0----------------------------------------------------------------------------------
E----------------------------------------------------------------------------------------------------------------

Chorus 3
Do doo doo doo doo doo doo Do doo doo doo doo Combat baby come back baby  Combat baby come back Bye bye bye bye bye bye bye bye baby Combat baby come back

Verse Ending (End with an open E major chord)
How I miss your ranting Do you miss my all time lows
Comments