Metheny Pat - In Her Family Chords & Tabs

 

In Her Family Chords & Tabs

Metheny Pat Chords & Tabs

Version: 1 Type: Tab 0 ratings
1 star 2 stars 3 stars 4 stars 5 stars
comments

In Her Family Tab

   
Song: In Her Family
Artist: Pat Metheny
Album: Still Life(Talking) 


e-11-11-14-11-12-9-9-11-11-7-11-9-7-4-2-2/4-7-4-9-4-2-2/4-7-11--
b---------------------------------------------------------------
g---------------------------------------------------------------
d---------------------------------------------------------------
a---------------------------------------------------------------
e---------------------------------------------------------------

e-12-14-14-14-9-12-11-9-7-12------------------------------------
b---------------------------------------------------------------
g---------------------------------------------------------------
d---------------------------------------------------------------
a---------------------------------------------------------------
e---------------------------------------------------------------
[ Tab from: http://www.guitartabs.cc/tabs/m/metheny_pat/in_her_family_tab.html ]
e-11-14-14-11-12-9-9-11-11-7-11-9-7-4-2-2/4-7-4-9-4-2-2/4-7-11--
b---------------------------------------------------------------
g---------------------------------------------------------------
d---------------------------------------------------------------
a---------------------------------------------------------------
e---------------------------------------------------------------

e-12-14-14-14-9-12-11-9-7-12------------------------------------
b---------------------------------------------------------------
g---------------------------------------------------------------
d---------------------------------------------------------------
a---------------------------------------------------------------
e---------------------------------------------------------------

e-11-11-11-7-9-11-11/12-14-16-19-19-18-16/18-18-18-16-14-18-18-16
b----------------------------------------------------------------
g----------------------------------------------------------------
d----------------------------------------------------------------
a----------------------------------------------------------------
e----------------------------------------------------------------

e-14-11-9-7-------------------------------------------------------
b-----------------------------------------------------------------
g-----------------------------------------------------------------
d-----------------------------------------------------------------
a-----------------------------------------------------------------
e-----------------------------------------------------------------


Comments