Metheny Pat - Bright Size Life Chords & Tabs

 

Bright Size Life Chords & Tabs

Metheny Pat Chords & Tabs

Version: 1 Type: Tab 1 rating
1 star 2 stars 3 stars 4 stars 5 stars
comments

Bright Size Life Tab

e-----------7-5---------5/7-5-3-2/3/5-2/3/5-0-1/3-2-0-0-0/2----------------------
b-------7-4-----3-5/35-------------------------------------3-3--3-5-5/6-5-3-----
g---6-4-----------4/24----------------------------------------------------------
d-4------------------------------------------------------------------------------
a--------------------------------------------------------------------------------
e--------------------------------------------------------------------------------

-----------7-5----------5/7-5-3-2/3/5-2/3/5-0---0-1/3-2-0-0-0/2-----7-5-3-2-5----
-------7-4-----3--5/35-----------------------3-----------------3-3------------5-
---6-4------------4/24----------------------------------------------------------
-4-------------------------------------------------------------------------------
---------------------------------------------------------------------------------
---------------------------------------------------------------------------------
[ Tab from: http://www.guitartabs.cc/tabs/m/metheny_pat/bright_size_life_tab.html ]
-9------10/12-10-12-10-8-7-10----8--------7/9-7----------10/12-10----------------
----7------------------------10------7----------10-8-7-9-------------------------
--7--------------------------------6---------------------------------------------
------5--------------------------------5-----------------------------------------
---------------------------------------------------------------------------------
---------------------------------------------------------------------------------

-----------7-5----------5/7-5-3-2/3/5-2/3/5-0---0-1/3-2-0-0/2-----0--------------
-------7-4-----3--5/35-----------------------3---------------3-3-2--0--------3--
---6-4------------4/24------------------------------------------------2-0----6--
-4-------------------------------------------------------------------------4--0--
---------------------------------------------------------------------------------
---------------------------------------------------------------------------------

--------------3-------5-------7--------------------------------------------------
----------3/5---5-5/7---7-7/9---9------------------------------------------------
------3/5------------------------------------------------------------------------
-3/5-----------------------------------------------------------------------------
---------------------------------------------------------------------------------
---------------------------------------------------------------------------------

that is all I could get for now. this is my first tab, so yeah sorry I don’t have 
any of those time signature things and I know it aint the best tab so yeah.  just 
listen to the song and play along with it.  ill try to finish later and will add 
another better one if I get the chance to. bye
Comments