Meters - Tippi-toes Chords & Tabs

 

Tippi-toes Chords & Tabs

Meters Chords & Tabs

Version: 1 Type: Bass Tab 0 ratings
1 star 2 stars 3 stars 4 stars 5 stars
comments

Tippi-toes Bass Tab

Artist: The Meters
Song: Tippi-toes
Album: Cissy Strut

Transcribed by Nathan Åkerlund (natman@tjohoo.se)
Tuning is EADG.
[ Tab from: http://www.guitartabs.cc/tabs/m/meters/tippi_toes_btab.html ]
Main riff                         Bridge
---7-----5------5-5---7---        ---------------------------------|
-----7-7----7-7-----7-----        ---------------------------------|
-5----------------------5- (x12)  -5-5-------5-5-------5-5-------5-|
--------------------------        ------5-5---------5-------5-5----|

Main riff x2
Short break, play D once
Main riff x4

Now play the same pattern as the main riff but in G:
----12-------10--------10-10----12----|
-------12-12-----12-12-------12-------|
-10--------------------------------10-| (x2)
--------------------------------------|

Main riff x2
Bridge
Main riff x16 (fades out).

This is a cool funky song, enjoy :)
Feel free to contact me if you have any opinions on this transcription.
Comments