Meters - Out In The Country Chords & Tabs

 

Out In The Country Chords & Tabs

Meters Chords & Tabs

Version: 2 Type: Bass Tab 0 ratings
1 star 2 stars 3 stars 4 stars 5 stars
comments

Out In The Country Bass Tab

Song Title:   Out In The Country
Group:        The Meters
Bass Player:  George Porter, Jr.

 --

 Time:             42
 Tempo:            92 bpm
 Original Tab by:  SCube
 New Tab by:	   Carlos Wenis


 I made this new tab from one already posted by SCube.  Most of the 
 notes in that tab seemed off by a few frets, and this one is more 
 or less how I hear the song off of the recording.


 (intro)
 |----------------|----------------|----------------|
 |----------------|----------------|----------------|
 |----------------|----------------|----------------|
 |8---7---5-------|8---7---5---7---|8---7---5-------|


 |----------------|----------------|----------------|----------------|
 |----------------|----------------|----------------|----------------|
 |----------------|----------------|----------------|----------4-----|
 |3-----5-7----8--|----------7--5--|3-----5-7----8--|-------------8-7|

 (verse 1)
 |----------------|----------------|----------------|----------------|
 |----------------|----------------|----------------|----------------|
 |------2-4----5--|----------4--2--|------2-4----5--|----------4--2--|
 |5---------------|----------------|5---------------|----------------|

 |----------------|----------------|----------------|----------------|
 |----------------|----------------|----------------|----------------|
 |------2-4----5--|----------4--2--|------2-4----5--|----------4--2--|
 |5---------------|----------------|5---------------|----------------|

 |----------------|----------------|----------------|----------------|
 |----------------|----------------|----------------|----------------|
 |----------------|----------------|----------------|--------------2-|
 |3-----5-7----8--|----------7--5--|3-----5-7----8--|----------3-5---|

 |----------------|
 |----------------|
 |----------------|
 |8--7--5---------|

 (chorus)
 |----------------|----------------|----------------|----------------|
 |----------------|----------------|----------------|----------------|
 |----------------|----------------|----------------|----------4-----|
 |3-----5-7----8--|----------7--5--|3-----5-7----8--|-------------8-7|

 (verse 2)
 |----------------|----------------|----------------|----------------|
 |----------------|----------------|----------------|----------------|
 |------2-4----5--|----------4--2--|------2-4----5--|----------4--2--|
 |5---------------|----------------|5---------------|----------------|

 |----------------|----------------|----------------|----------------|
 |----------------|----------------|----------------|----------------|
 |------2-4----5--|----------4--2--|------2-4----5--|----------4--2--|
 |5---------------|----------------|5---------------|----------------|

 (chorus)
 |----------------|----------------|----------------|----------------|
 |----------------|/10-------------|----------------|----------------|
 |----------------|----------------|----------------|----------------|
 |3-----5-7----8--|----------------|3-----5-7----8--|----------7--5--|
[ Tab from: http://www.guitartabs.cc/tabs/m/meters/out_in_the_country_btab_ver_2.html ]
 |----------------|----------------|----------------|----------------|
 |----------------|----------------|----------------|----------------|
 |----------------|----------------|----------------|----------------|
 |3-----5-7----8--|----------7--5--|3-----5-7----8--|----------3-5-7-|

 |----------------|
 |----------------|
 |----------------|
 |8--7--5---------|

 (chorus)
 |----------------|----------------|----------------|----------------|
 |----------------|----------------|----------------|----------------|
 |----------------|----------------|----------------|----------------|
 |3-----5-7----8--|----------7--5--|3-----5-7----8--|----------7--5--|

 (guitar solo)
 |----------------|----------------|----------------|----------------|
 |----------------|----------------|----------------|----------------|
 |----------------|----------------|----------------|----------------|
 |3-----5-7----8--|----------7--5--|3-----5-7----8--|----------7--5--|

 |----------------|----------------|----------------|----------------|
 |----------------|----------------|----------------|----------------|
 |----------------|----------------|----------------|----------4-----|
 |3-----5-7----8--|----------7--5--|3-----5-7----8--|-------------8-7|

 (verse 3)
 |----------------|----------------|----------------|----------------|
 |----------------|----------------|----------------|----------------|
 |------2-4----5--|----------4--2--|------2-4----5--|----------4--2--|
 |5---------------|----------------|5---------------|----------------|

 |----------------|----------------|----------------|----------------|
 |----------------|----------------|----------------|----------------|
 |------2-4----5--|----------4--2--|------2-4----5--|----------4--2--|
 |5---------------|----------------|5---------------|----------------|

 (chorus)
 |----------------|----------------|----------------|----------------|
 |----------------|----------------|----------------|----------------|
 |----------------|----------------|----------------|----------------|
 |3-----5-7----8--|----------7--5--|3-----5-7----8--|----------7--5--|

 |----------------|----------------|----------------|----------------|
 |----------------|----------------|----------------|----------------|
 |----------------|----------------|----------------|----------------|
 |3-----5-7----8--|----------7--5--|3-----5-7----8--|----------7--5--|

 |----------------|----------------|----------------|----------------|
 |----------------|----------------|----------------|----------------|
 |----------------|----------------|----------------|----------------|
 |3-----5-7----8--|----------7--5--|3-----5-7----8--|----------7--5--|

 |----------------|----------------|----------------|----------------|
 |----------------|----------------|----------------|----------------|
 |----------------|----------------|----------------|----------------|
 |3-----5-7----8--|----------7--5--|3-----5-7----8--|----------7--5--|

 |----------------|----------------|----------------|----------------|
 |----------------|----------------|----------------|----------------|
 |----------------|----------------|----------------|----------------|
 |3-----5-7----8--|----------7--5--|3-----5-7----8--|----------7--5--|

 Repeat playing with improv as song fades
Comments