Meters - Just Kissed My Baby Chords & Tabs

 

Just Kissed My Baby Chords & Tabs

Meters Chords & Tabs

Version: 1 Type: Bass Tab 0 ratings
1 star 2 stars 3 stars 4 stars 5 stars
comments

Just Kissed My Baby Bass Tab

Song Title:   Just Kissed My Baby
Group:        The Meters
Bass Player:  George Porter, Jr.
Bass Tab by:  SCube

(guitar wah intro)
|----------------|----------------|----------------|----------------|
|----------------|----------------|----------------|----------------|
|----------------|----------------|----------------|----------------|
|----------------|----------------|----------------|----------------|
(drums enter)
|----------------|----------------|----------------|----------------|
|----------------|----------------|----------------|----------------|
|----------------|----------------|----------------|----------------|
|----------------|----------------|----------------|----------------|

(bass enters)
|----------------|----------------|----------------|----------------|
|5-5-------------|----------------|5-5-------------|----------------|
|-5--------------|----------------|-5--------------|----------------|
|----------------|--0---1---2---3-|----------------|--0---1---2---3-|

|----------------|----------------|----------------|----------------|
|5-5-------------|----------------|5-5-------------|----------------|
|-5--------------|----------------|-5--------------|----------------|
|----------------|--0---1---2---3-|----------------|--0---1---2---3-|

|----------------|----------------|----------------|----------------|
|5-5-------------|----------------|5-5-------------|----------------|
|-5--------------|----------------|-5--------------|----------------|
|----------------|--0---1---2---3-|----------------|--0---1---2---3-|

|----------------|----------------|----------------|----------------|
|5-5-------------|----------------|5-5-------------|----------------|
|-5--------------|----------------|-5--------------|----------------|
|----------------|--0---1---2---3-|----------------|--0---1---2---3-|

|----------------|----------------|----------------|----------------|
|5-5-------------|----------------|5-5-------------|----------------|
|-5--------------|----------------|-5--------------|----------------|
|----------------|--0---1---2---3-|----------------|--0---1---2---3-|

|----------------|----------------|----------------|----------------|
|5-5-------------|----------------|5-5-------------|-------------/7-|
|-5--------------|----------------|-5--------------|----------------|
|----------------|--0---1---2---3-|----------------|--2---3---4-----|

|----------------|
|----------------|
|----------------|
|----------------|

(chorus)
|----------------|----------------|----------------|----------------|
|--567-----------|--567-----------|--567-----------|--567-----------|
|-------5-575----|-------5-575----|-------5-575----|-------5-575----|
|-----5--8---5---|-----5--8---5---|-----5--8---5---|-----5--8---5333|


|----------------|----------------|----------------|----------------|
|----------------|----------------|----------------|----------------|
|----------------|----------------|----------------|----------------|
|----------------|--0---1---2---3-|----------------|--0---1---2---3-|

|----------------|----------------|----------------|----------------|
|5-5-------------|----------------|5-5-------------|----------------|
|-5--------------|----------------|-5--------------|----------------|
|----------------|--0---1---2---3-|----------------|--0---1---2---3-|
[ Tab from: http://www.guitartabs.cc/tabs/m/meters/just_kissed_my_baby_btab.html ]
|----------------|----------------|----------------|----------------|
|5-5-------------|----------------|5-5-------------|----------------|
|-5--------------|----------------|-5--------------|----------------|
|----------------|--0---1---2---3-|----------------|--0---1---2---3-|

|----------------|----------------|----------------|----------------|
|5-5-------------|----------------|5-5-------------|----------------|
|-5--------------|----------------|-5--------------|----------------|
|----------------|--0---1---2---3-|----------------|--0---1---2---3-|

|----------------|----------------|----------------|----------------|
|5-5-------------|----------------|5-5-------------|----------------|
|-5--------------|----------------|-5--------------|----------------|
|----------------|--0---1---2---3-|----------------|--0---1---2---3-|

|----------------|----------------|----------------|----------------|
|5-5-------------|----------------|5-5-------------|-------------/7-|
|-5--------------|----------------|-5--------------|----------------|
|----------------|--0---1---2---3-|----------------|--0---1---2-----|

|----------------|
|----------------|
|----------------|
|----------------|

(chorus)
|----------------|----------------|----------------|----------------|
|--567-----------|--567-----------|--567-----------|--567-----------|
|-------5-575----|-------5-575----|-------5-575----|-------5-575----|
|-----5--8---5---|-----5--8---5---|-----5--8---5---|-----5--8---5333|


|----------------|----------------|----------------|----------------|
|----------------|----------------|5-5-------------|----------------|
|----------------|----------------|-5--------------|----------------|
|----------------|--0---1---2---3-|----------------|--0---1---2---3-|

|----------------|----------------|----------------|----------------|
|5-5-------------|----------------|5-5-------------|----------------|
|-5--------------|----------------|-5--------------|----------------|
|----------------|--0---1---2---3-|----------------|--0---1---2---3-|

|----------------|----------------|----------------|----------------|
|5-5-------------|----------------|5-5-------------|----------------|
|-5--------------|----------------|-5--------------|----------------|
|----------------|--0---1---2---3-|----------------|--0---1---2---3-|

|----------------|----------------|----------------|----------------|
|5-5-------------|----------------|5-5-------------|----------------|
|-5--------------|----------------|-5--------------|----------------|
|----------------|--0---1---2---3-|----------------|--0---1---2---3-|

|----------------|----------------|----------------|----------------|
|5-5-------------|----------------|5-5-------------|----------------|
|-5--------------|----------------|-5--------------|----------------|
|----------------|--0---1---2---3-|----------------|--0---1---2---3-|

|----------------|----------------|----------------|----------------|
|5-5-------------|----------------|5-5-------------|----------------|
|-5--------------|----------------|-5--------------|----------------|
|----------------|--0---1---2---3-|----------------|--0---1---2---3-|

|----------------|----------------|----------------|----------------|
|5-5-------------|----------------|5-5-------------|----------------|
|-5--------------|----------------|-5--------------|----------------|
|----------------|--0---1---2---3-|----------------|--0---1---2---3-|

continue to play as song fades out


Comments