Meters - Jungle Man Chords & Tabs

 

Jungle Man Chords & Tabs

Meters Chords & Tabs

Version: 1 Type: Tab 0 ratings
1 star 2 stars 3 stars 4 stars 5 stars
comments

Jungle Man Tab

   
"Jungle Man"
The Meters

Transcribed by Funkguitar.org
http://www.funkguitar.org

On the super-funky 1974 Album Rejuvenation, The Meters hit us with 
Jungle Man. We love the simplicity of this song, and of course the 
stripped down but powerful drums really make this track. Leo 
Nocentelli's guitar is overdriven and crunchy, and this whole track 
just blows you out of the water. If you don't find your head 
bobbing up and down to that chorus, check your pulse. 

The song is fairly straight-forward, a verse section, a very 
small pre-chorus, and a chorus make up the track.
 
Verse
      A    A/B     A
E-----5----5/7-----5----------------|
B-----5----5/7-----5-----7p5--------|
G-----6----6/8-----6----------------|
D-----------------------------------|
A-----------------------------------|
E-----------------------------------|
[ Tab from: http://www.guitartabs.cc/tabs/m/meters/jungle_man_tab.html ]
Pre-Chorus
      A                E  
E-----5---5--5-5--------------------|
B-----5---5--5-5-------9--9-9-------|
G-----6---6--6-6-------9--9-9-------|
D-----7---7--7-7-------9--9-9-------|
A-----7---7--7-7--------------------|
E-----5---5--5-5--------------------|

Chorus

Riff A x1

E--------------------------------------------|
B---------------------------------------7--5-|
G---------------------------------------7--5-|
D--------------------------------------------|
A----3-------3----------3--------------------|
E------5-3h5---5----3h5---5-3h5vvvv----------|
                               
Riff B x3

E--------------------------------------------|
B---------------------------------------7--5-|
G---------------------------------------7--5-|
D--------------------------------------------|
A--------3-------3-------3-------------------|
E--3h5p3---5p3h5---5p3h5---5p3h5p3h5vvv------|



Comments