Meters - Jungle Man Chords & Tabs

 

Jungle Man Chords & Tabs

Meters Chords & Tabs

Version: 2 Type: Bass Tab 0 ratings
1 star 2 stars 3 stars 4 stars 5 stars
comments

Jungle Man Bass Tab

Song Title:   Jungle Man
Group:        The Meters
Bass Player:  George Porter, Jr.
Bass Tab by:  SCube

(drum intro)
|----------------|----------------|----------------|----------------|
|----------------|----------------|----------------|----------------|
|----------------|----------------|----------------|----------------|
|----------------|----------------|----------------|----------------|
(guitar enters)
|----------------|----------------|----------------|----------------|
|----------------|----------------|----------------|----------------|
|----------------|----------------|----------------|----------------|
|----------------|----------------|----------------|----------------|
(bass enters)
|----------------|----------------|----------------|----------------|
|----------------|----------------|----------------|----------------|
|----------------|----------------|----------------|----------------|
|5-5--3--5-------|5-5--3--5-------|5-5--3--5-------|5-5--3--5-----0-|
|----------------|----------------|----------------|----------------|
|----------------|----------------|----------------|----------------|
|----------------|----------------|----------------|----------------|
|5-5--3--5-------|5-5--3--5-------|5-5--3--5-------|5-5--3--5-------|
|----------------|----------------|----------------|----------------|
|----------------|----------------|----------------|----------------|
|----------------|----------------|----------------|----------------|
|5-5--3--5-------|5-5--3--5---0---|5-5--3--5-------|5-5--3--5---3---|
|----------------|----------------|
|----------------|----------------|
|----------------|4-4--4--4--3-5--|
|2----2--2-------|----------------|
(chorus)
|----------------|----------------|----------------|----------------|
|----------------|----------------|----------------|----------------|
|3-----3-------3-|----------------|3-----3-------3-|----------------|
|--535---535-03--|5-3-5--------030|--535---535-03--|5-3-5--------030|
|----------------|----------------|----------------|----------------|
|----------------|----------------|----------------|----------------|
|3-----3-------3-|----------------|3-----3-------3-|----------------|
|--535---535-03--|5-3-5--------030|--535---535-03--|5-3-5-----------|
 
|----------------|----------------|----------------|----------------|
|----------------|----------------|----------------|----------------|
|----------------|----------------|----------------|----------------|
|5-5--3--5-------|5-5--3--5-------|5-5--3--5-------|5-5--3--5---0---|
|----------------|----------------|----------------|----------------|
|----------------|----------------|----------------|----------------|
|----------------|----------------|----------------|----------------|
|5-5--3--5-------|5-5--3--5-------|5-5--3--5-------|5-5--3--5---0---|
|----------------|----------------|----------------|----------------|
|----------------|----------------|----------------|----------------|
|----------------|----------------|----------------|----------------|
|5-5--3--5-------|5-5--3--5---0---|5-5--3--5-------|5-5--3--5---3---|
|----------------|----------------|
|----------------|----------------|
|----------------|4-4--4--4--3-5--|
|2----2--2-------|----------------|
(chorus)
|----------------|----------------|----------------|----------------|
|----------------|----------------|----------------|----------------|
|3-----3-------3-|----------------|3-----3-------3-|----------------|
|--535---535-03--|5-3-5--------030|--535---535-03--|5-3-5--------030|
|----------------|----------------|----------------|----------------|
|----------------|----------------|----------------|----------------|
|3-----3-------3-|----------------|3-----3-------3-|----------------|
|--535---535-03--|5-3-5--------030|--535---535-03--|5-3-5-----------|
 
|----------------|----------------|----------------|----------------|
|----------------|----------------|----------------|----------------|
|----------------|----------------|----------------|----------------|
|5-5--3--5-------|5-5--3--5---0---|5-5--3--5-------|5-5--3--5-------|
|----------------|----------------|----------------|----------------|
|----------------|----------------|----------------|----------------|
|----------------|----------------|----------------|----------------|
|5-5--3--5-------|5-5--3--5-------|5-5--3--5---0---|5-5--3--5-------|
(intermission)
|----------------|----------------|----------------|----------------|
|----------------|----------------|----------------|----------------|
|----------------|----------------|----------------|----------------|
|----------------|----------------|----------------|----------------|
|----------------|----------------|----------------|----------------|
|----------------|----------------|----------------|----------------|
|----------------|----------------|----------------|----------------|
|----------------|----------------|----------------|----------------|
 
|----------------|----------------|----------------|----------------|
|----------------|----------------|----------------|----------------|
|----------------|----------------|----------------|----------------|
|5-5--3--5-------|5-5--3--5-------|5-5--3--5-------|5-5--3--5-------|
|----------------|----------------|----------------|----------------|
|----------------|----------------|----------------|----------------|
|----------------|----------------|----------------|----------------|
|5-5--3--5-------|5-5--3--5-------|5-5--3--5-------|5-5--3--5-------|
continue to play as song fades out


[ Tab from: http://www.guitartabs.cc/tabs/m/meters/jungle_man_btab_ver_2.html ]
Comments