Meters - Funkly Miracle Chords & Tabs

 

Funkly Miracle Chords & Tabs

Meters Chords & Tabs

Version: 1 Type: Bass Tab 0 ratings
1 star 2 stars 3 stars 4 stars 5 stars
comments

Funkly Miracle Bass Tab

   
Instrument: 4 String Bass
Tabbed by: MELIFERRY  #chucked# ()
Tuning: Standard (E A D G)

INTRO
G|-----------------------------------------------------||
D|----------------5------------------------------------||
A|--7-5-------5-7---7-5-------5-7---7-5-------5-6-7----||
E|------7-5-7-----------7-5-7-----3-----7-5-7----------||

VERSE 1
G|-----------9-0---------------------------------------||
D|-----------------------------------------------------||
A|--7-77-(7)-----7-------------------------------------|| 8x
E|-----------------------------------------------------||
[ Tab from: http://www.guitartabs.cc/tabs/m/meters/funkly_miracle_btab.html ]
BRIDGE 1
G|------/9-99-7-9--------------------------------------||
D|--5-7------------5-7---------------------------------||
A|---------------------7-77-5-7------------------------|| 4X
E|-----------------------------------------------------||

INTRO 
-short Piano Solo-
BRIDGE 1

Pre-SOLO
G|------------------------------------9--------79-------------||
D|---------------------------------------66-77-6--------------||
A|-77--PianoSolo--77--GuitarSolo-77------------------7---Drum-||
E|------------------------------------------------------------||

G|------------------------------------9--7--7-----------------||
D|-----------------------------------------9--9--679----------||
A|-77--PianoSolo--77--GuitarSolo-77------------------7---Drum-||
E|------------------------------------------------------------||

VERSE 1
BRIDGE 1
VERSE 1
INTRO
Comments