Meters - Cissy Strut Chords & Tabs

 

Cissy Strut Chords & Tabs

Meters Chords & Tabs

Version: 1 Type: Tab 0 ratings
1 star 2 stars 3 stars 4 stars 5 stars
comments

Cissy Strut Tab

Cissy Strut
The Meters

From The Meters' eponymous 1969 Album

Tabbed by Leo
(Please email leeroybrun@hotmail.com for corrections, or if you want
to see more Funk/Soul guitar tabs on the web - I find them thin on the
ground, and frequently inaccurate).


"Verse" Riff x 4

------------------|--------------6-6---5-5--|
------------------|--------------6-6---6-6--|
---5-3-0----------|--------------7-7---5-5--|
----------1(b)----|-------------------------|
--------------3---|--1-3--1--3--------------|
------------------|-------------------------|

"Chorus" x 4
[ Tab from: http://www.guitartabs.cc/tabs/m/meters/cissy_strut_tab.html ]
----------------------------|
----------------------------|
----------------------------|
--10---8--10--8---10---8----|
----------------------------|
----------------------------|


-----------------------------|
-----------------------------|
-----------------------------|
--10---8--10--8--------------|
-----------------10----------|
----------------------8------|

Repeat Verse and Chorus


Third Verse: C9 chord

---3----3----------------------|
---3----3----------------------|
---3----3---Improv Rhythm------|
---2----2---with palm muting---|
---3----3----------------------|
-------------------------------|
Comments