Metallica - Whiskey In The Jar Chords & Tabs

 

Whiskey In The Jar Chords & Tabs

Metallica Chords & Tabs

Version: 9 Type: Tab 0 ratings
1 star 2 stars 3 stars 4 stars 5 stars
comments

Whiskey In The Jar Tab

   
Tabbed by:Amz
Email:Amz2323@hotmail.com

Tuning:Eb Bb Gb Db Ab Eb

Guitar 1 Intro
eb|-------------------------------------------------------------------------|
Bb|-------------------------------------------------------------------------|
Gb|-------------------------------------------------------------------------|
Db|--3-1-12-12-12-12-12-12-333333-1-12-12-12-12-12-12-----------------------|
Ab|--3-1--0--0--0--0--0--0-333333-1--0--0--0--0--0--0-----------------------|
Eb|--0-0--8--8--8--8--8--8-000000-0--8--8--8--8--8--8-----------------------|

Guitar 2 Intro
eb|---------------------5---------------------------------------------------|
Bb|----6-9-----------6-8-8-6-8----------------------------------------------|
Gb|-555-7-5-7/10-5-7--------------------------------------------------------|
Db|---------------------------10-3-12-4-10----------------------------------|
Ab|---------------------------------------12--------------------------------|
Eb|-----------------------------------------0-------------------------------|

Verse 1 Guitar 1 & 2
eb|-------------------------------------------------------------------------|
Bb|-------------------------------------------------------------------------|
Gb|-------------------------------------------------------------------------|
Db|-33333333-12-12-12-12-12-12-333333333333-1-12-12-12-12-12-12-------------|
Ab|-33333333--0--0--0--0--0--0-333333333333-1--0--0--0--0--0--0-------------|
Eb|-00000000--8--8--8--8--8--8-000000000000-0--8--8--8--8--8--8-------------|
[ Tab from: http://www.guitartabs.cc/tabs/m/metallica/whiskey_in_the_jar_tab_ver_9.html ]
Interlude 1 Guitars 1 & 2
eb|-3333-2-111111-----------------------------------------------------------|
Bb|-4444-5-333333-----------------------------------------------------------|
Gb|-5555-4-444444-----------------------------------------------------------|
Db|-5555-4-333333-----------------------------------------------------------|
Ab|-3333-2-222222-----------------------------------------------------------|
Eb|-------------------------------------------------------------------------|
Then 

Guitar 2
eb|---------------------5---------------------------------------------------|
Bb|----6-9-----------6-8-8-6-8----------------------------------------------|
Gb|-555-7-5-7/10-5-7--------------------------------------------------------|
Db|---------------------------10-3-12-4-10----------------------------------|
Ab|---------------------------------------12--------------------------------|
Eb|-----------------------------------------0-------------------------------|

Verse 2 Guitar 1
eb|-------------------------------------------------------------------------|
Bb|-------------------------------------------------------------------------|
Gb|-------------------------------------------------------------------------|
Db|-33333333-12-12-12-12-12-12-333333333333-1-12-12-12-12-12-12-------------|
Ab|-33333333--0--0--0--0--0--0-333333333333-1--0--0--0--0--0--0-------------|
Eb|-00000000--8--8--8--8--8--8-000000000000-0--8--8--8--8--8--8-------------|



| /  slide up
| \  slide down
| h  hammer-on
| p  pull-off
| ~  vibrato
| +  harmonic
| x  Mute note
=============================================================================

Im going to put the solo sometime in the future 
Any questions email me at Amz2323@hotmail.com
Comments