Metallica - Whiskey In The Jar Chords & Tabs

 

Whiskey In The Jar Chords & Tabs

Metallica Chords & Tabs

Version: 8 Type: Tab 0 ratings
1 star 2 stars 3 stars 4 stars 5 stars
comments

Whiskey In The Jar Tab

Tabbed by Matt Furlong *Lord Of The Strings*
this is an awsome song! so........yeah!


 Kirk
d-----------------------------------------------------------
A-----------------------------------------------------------
F-----------------------------------------------------------
C--5-4-2--2-2--2-2--2-2-5--5-5--5-5--5-5-4--2--2-2--2-2--2-2
G--5-4-2--2-2--2-2--2-2-5--5-5--5-5--5-5-4--2--2-2--2-2--2-2
D--3-2-0--0-0--0-0--0-0-3--3-3--3-3--3-3-2--0--0-0--0-0--0-0


 James
d-------------------------            ---------7----7-----------------------------
A----------8---7----------            ----8-10---10---10-8--8-10-8~~--------------
F---7-7--7---9---7-9/12~~~            7-9-----------------------------------------
C-------------------------            -------------------------------0-5-2-4-0----
G-------------------------            -----------------------------------------2--
D-------------------------            -------------------------------------------3


2)
d-----------------------------------------------------------------------
A-----------------------------------------------------------------------
F------------------------------------------5--5-5--5-5--5-5-------------
C--5-5--5-5--5-5--5-5--4-2--2-2--2-2--2-2--5--5-5--5-5--5-5--5--5-5--5-5
G--5-5--5-5--5-5--5-5--4-2--2-2--2-2--2-2--3--3-3--3-3--3-3--5--5-5--5-5
D--3-3--3-3--3-3--3-3--2-0--0-0--0-0--0-0--------------------3--3-3--3-3
"As I was walking over"


 James
d--5--5-5--5-5-4-3--3-3--3-3--3-3       --
A--7--7-7--7-7-6-5--5-5--5-5--5-5       --        
F--7--7-7--7-7-6-5--5-5--5-5--5-5       --
C--7--7-7--7-7-6-5--5-5--5-5--5-5       -5
G--5--5-5--5-5-4-3--3-3--3-3--3-3       -5
D--------------------------------       -3

 Kirk 
d--2-------2---3-----2----------------3-----0---------------3-----0-----
A--3-----3---3---3-----3----------1-----1-----1---------1-----1-----1---
F--2---2-----------2-----2------0---0-----0-----0-----0---0-----0-----0-
C--0-0------------------------2---------------------2-------------------
G---------------------------3---------------------3---------------------
D-----------------------------------------------------------------------
"Sha rhem abaduba bla...there's whiskey in the Jar-o"


 Kirk
d--3---0---0--3
A--3---0---1--3
F--0---0---0--0
C--0---2---2--0
G--2---2---3--2
D--3---0------3

 James
F---------------------------------------------7-7-7-7-7
C------------------------------------5--------7-7-7-7-7
G--5--5-5-5-5-5/7--5/7-7/5-5/3---2-3---3---5--5-5-5-5-5
D------------------------------------------------------
"But me, I like sleepin'"



solo
7--8--10--8--7h8p7-----7------------|---------7h-8--5/10----7--10--|
-------------------10-----10--8--7--|--8--10-----------------------|
------------------------------------|------------------------------|
------------------------------------|------------------------------|
------------------------------------|------------------------------|
------------------------------------|------------------------------|


                                                                           
--10h12~--12--10--12--------14b--|--12----10----12--10--12------7---10----|
--------------------------x------|----------------------------------------|
------------------------x--------|----------------------------------------|
---------------------------------|----------------------------------------|
---------------------------------|----------------------------------------|
---------------------------------|----------------------------------------|

[ Tab from: http://www.guitartabs.cc/tabs/m/metallica/whiskey_in_the_jar_tab_ver_8.html ]
                                                                
--8----7----5-------------------|--8p7-5-----------------------|
-----------------8----6----5----|--------8---6--5--------------|
--------------------------------|--------------------7----5----|
--------------------------------|------------------------------|
--------------------------------|------------------------------|
--------------------------------|------------------------------|


                                                                             
----------------------|--------------7--8--|--10--8--7h8p7-----7------------|
----------------------|--------------------|---------------10-----10--8--7--|
--4r---4r---4r---4r---|--------------------|--------------------------------|
----------------------|--------------------|--------------------------------|
----------------------|--------------------|--------------------------------|
----------------------|--------------------|--------------------------------|


                                                              
---------7--8--8/10-------10--|--10-12~--12--10--12--14b-----|
--8--10---------------12------|------------------------------|
------------------------------|------------------------------|
------------------------------|------------------------------|
------------------------------|------------------------------|
------------------------------|------------------------------|


                                                                      
--12----10----12--10--12--------10--|--8----7----5-------------------|
----------------------------12------|-----------------8----6----5----|
------------------------------------|--------------------------------|
------------------------------------|--------------------------------|
------------------------------------|--------------------------------|
------------------------------------|--------------------------------|


                                                                
----------7h8----10-----12----|--------------------------------|
--5h6p5-8-----5/-----5/-------|--------------------------------|
------------------------------|--12~---12~---12----12----12----|
------------------------------|--12~---12~---14----12----10----|
------------------------------|--------------------------------|
------------------------------|--------------------------------|


                                                             
----------------------------|-------------------------------|
-------------------------8--|--10b---10b-10r---10p8----8h10-|
--12--12--12----------9-----|-----------------------9-------|
--9---10--12----------------|-------------------------------|
----------------------------|-------------------------------|
----------------------------|-------------------------------|


                                                       
------------------------|-----------------------------|
--8~---8-----8----------|-----------------------------|
----------9-----7----6--|--5~---7--5--9----7/---10----|
------------------------|-----------------------------|
------------------------|-----------------------------|
------------------------|-----------------------------|


                                                            
------------------------12----|----------------------------|
-----8-------10----8----------|--8--8~---8--8--------------|
--9-------9-------------------|------------------9----9----|
------------------------------|----------------------------|
------------------------------|----------------------------|
------------------------------|----------------------------|


                                                                          
--------------------------------|----------------------15h17p15h17p15----|
--8-----------------------------|----------------15h17----------------17-|
--9----9----9----9/-12--12/-14--|--12----12h-14--------------------------|
--------------------------------|----------------------------------------|
--------------------------------|----------------------------------------|
--------------------------------|----------------------------------------|


                               
--15----15-------------------||
-----------------------------||
-----------------------------||
-----------------------------||
-----------------------------||
-----------------------------||
Comments