Metallica - Whiskey In The Jar Chords & Tabs

 

Whiskey In The Jar Chords & Tabs

Metallica Chords & Tabs

Version: 2 Type: Tab 4 ratings
1 star 2 stars 3 stars 4 stars 5 stars
comments

Whiskey In The Jar Tab

Whiskey In The Jar


Metallica


Album: Garage Inc.


Tabbed by Greg Clark


E-mail: greg_clark48@hotmail.com  

Note: gt = guitar (gt1 = Guitar 1)


gt1
d-------------------------------------------------------------|
A-------------------------------------------------------------|
F-------------------------------------------------------------|
C--5-4--2-2-2-2-----2-2-2-2-5--5-5--5-5--5-5\4--2-2--2-2--2-2-|
G--5-4--2-2-2-2--2--2-2-2-2-5--5-5--5-5--5-5\4--2-2--2-2--2-2-|
D--3-2--0-0-0-0--0--0-0-0-0-3--3-3--3-3--3-3-2--0-0--0-0--0-0-|

   
gt2  
:|------------------------------------------------------------------------------|
:|------7-8---7-------------------7-8---7-------------------7-8---7-------------|
:|-77-9-----9---7--9/12~~~~--77-9-----9---7--9/12b~~~~--77-9----9---7--9/12~~~~-|
:|------------------------------------------------------------------------------|
:|------------------------------------------------------------------------------|
:|------------------------------------------------------------------------------|



:--------------------------|
:--------------------------|
:-------7------------------|
:-5-7-9---5-7-5--7bp5~~~~--|
:--------------------------|
:--------------------------|


other option for gt2
:------------------------|-----------------------|-----------------------|
:-----5-7-8---7---5/8~~~~|---5-7-8---7---5/8b~~~-|----5-7-8---7---5/8~~~-|
:-7-7-------7---7--------|77-------7---7---------|7-7-------7---7--------|
:------------------------|-----------------------|-----------------------|
:------------------------|-----------------------|-----------------------|
:------------------------|-----------------------|-----------------------|

:--------------------------|
:--------------------------|
:-------7------------------|
:-5-7-9---5-7-5--7bp5~~~~--|
:--------------------------|
:--------------------------|


verse
:---------------------------------------------------------------------------|
:---------------------------------------------------------------------------|
:-----------------------------------5--5-5--5--5----------------------------|
:5--5-5--5--5-5--5-2--2-2--2-2-2--2-5--5-5--5--5--5-5--5-5-5-5-5-5--5-5-5---|
:5--5-5--5--5-5--5-2--2-2--2-2-2--2-3--3-3--3--3--3-3--5-5-5-5-5-5--5-5-5---|
:3--3-3--3--3-3--3-0--0-0--0-0-0--0--------------------3-3-3-3-3-3--3-3-3---|


:-----------------------------------------------------------------------|
:-----------------------------------------------------------------------|
:---------------------------------------5-5-5-5-5-5-5-5-----------------|
:5-5-5-5-5-5--5-5-5/4-2--2-2--2-2-2--2--5-5-5-5-5-5-5-5--5-5-5-5-5-5-5-5|
:5-5-5-5-5-5--5-5-5/4-2--2-2--2-2-2--2--3-3-3-3---3-3-3--5-5-5-5-5-5-5-5|
:3-3-3-3-3-3--3-3-3-2-0--0-0--0-0-0--0-------------------3-3-3-3-3-3-3-3|


verse                                                           -------
:|-----------------------------------------------------------------------------|
:|------7-8---7-------------------7-8---7-------------------8-10b-10-10--10-12-|
:|-77-9-----9---7--9/12~~~~--77-9-----9---7--9/12b~~~~--7-9--------------------|
:|-----------------------------------------------------------------------------|
:|-----------------------------------------------------------------------------|
:|-----------------------------------------------------------------------------|


                                                                                                               
:---------------------------------------------|
:8h10p8-(8)-8h10p8-(8)------------------------|
:----------------------------7----------------|
:----------------------5/7-9---5-7-5-7bp5~~~~-|
:---------------------------------------------|
:---------------------------------------------|



:---------------------------------------------------------------------------|
:---------------------------------------------------------------------------|
:-----------------------------------5--5-5--5--5----------------------------|
:5--5-5--5--5-5--5-2--2-2--2-2-2--2-5--5-5--5--5--5-5--5-5-5-5-5-5--5-5-5---|
:5--5-5--5--5-5--5-2--2-2--2-2-2--2-3--3-3--3--3--3-3--5-5-5-5-5-5--5-5-5---|
:3--3-3--3--3-3--3-0--0-0--0-0-0--0--------------------3-3-3-3-3-3--3-3-3---|


:-----------------------------------------------------------------------|
:-----------------------------------------------------------------------|
:---------------------------------------5-5-5-5-5-5-5-5-----------------|
:5-5-5-5-5-5--5-5-5/4-2--2-2--2-2-2--2--5-5-5-5-5-5-5-5--5-5-5-5-5-5-5-5|
:5-5-5-5-5-5--5-5-5/4-2--2-2--2-2-2--2--3-3-3-3---3-3-3--5-5-5-5-5-5-5-5|
:3-3-3-3-3-3--3-3-3-2-0--0-0--0-0-0--0-------------------3-3-3-3-3-3-3-3|


                                         gt2 
:---------------------------------------|/8~~~-(8)-8-8~~-7h8p7~~~-|
:---------------------------------------|-------------------------|
:-7-(7)-7-7-7-7-7-7--5-5-x-x-x--5-x-x-x-|-------------------------|
:-7-(7)-7-7-7-7-7-7--5-5-x-x-x--5-x-x-x-|-------------------------|
:-5-(5)-5-5-5-5-5-5--3-3-x-x-x--3-x-x-x-|-------------------------|
:---------------------------------------|-------------------------|


                                                           
:|--------------------------------------------------------------------|
:|------7-8---7-------------------7-8---7-------------------8-10b-10b-|
:|-77-9-----9---7--9/12~~~~--77-9-----9---7--9/12b~~~~--7-9-----------|
:|--------------------------------------------------------------------|
:|--------------------------------------------------------------------|
:|--------------------------------------------------------------------|


                                                                                                               
:-----------------------------------------|
:8h10p8-8~~~~~----------------------------|
:------------------------7----------------|
:------------------5/7-9---5-7-5-7bp5~~~~-|
:-----------------------------------------|
:-----------------------------------------|

gt1  
:---------------------------------------------------------------------------|
:---------------------------------------------------------------------------|
:-----------------------------------5--5-5--5--5----------------------------|
:5--5-5--5--5-5--5-2--2-2--2-2-2--2-5--5-5--5--5--5-5--5-5-5-5-5-5--5-5-5---|
:5--5-5--5--5-5--5-2--2-2--2-2-2--2-3--3-3--3--3--3-3--5-5-5-5-5-5--5-5-5---|
:3--3-3--3--3-3--3-0--0-0--0-0-0--0--------------------3-3-3-3-3-3--3-3-3---|

gt2              
:-------------------------------------------|
:-------------------------------------------|
:-777h9-7-4--999h11-9-5-9-12-9\7--7h9-7-7\4-|
:-------------------------------------------|
:-------------------------------------------|
:-------------------------------------------|

gt1
:-----------------------------------------------------------------------|
:-----------------------------------------------------------------------|
:---------------------------------------5-5-5-5-5-5-5-5-----------------|
:5-5-5-5-5-5--5-5-5/4-2--2-2--2-2-2--2--5-5-5-5-5-5-5-5--5-5-5-5-5-5-5-5|
:5-5-5-5-5-5--5-5-5/4-2--2-2--2-2-2--2--3-3-3-3---3-3-3--5-5-5-5-5-5-5-5|
:3-3-3-3-3-3--3-3-3-2-0--0-0--0-0-0--0-------------------3-3-3-3-3-3-3-3|


gt2              
:--------------------------------|
:--------------------------------|
:-777h9-7-4--999h11-9-5-9-12-9\7-|
:--------------------------------|
:--------------------------------|
:--------------------------------|

[ Tab from: http://www.guitartabs.cc/tabs/m/metallica/whiskey_in_the_jar_tab_ver_2.html ]
                                         gt2 
:---------------------------------------|/8~~~-(8)-8-8~~-7h8p7~~~-|
:---------------------------------------|-------------------------|
:-7-(7)-7-7-7-7-7-7--5-5-x-x-x--5-x-x-x-|-------------------------|
:-7-(7)-7-7-7-7-7-7--5-5-x-x-x--5-x-x-x-|-------------------------|
:-5-(5)-5-5-5-5-5-5--3-3-x-x-x--3-x-x-x-|-------------------------|
:---------------------------------------|-------------------------|


:|--------------------------|
:|------7-8---7-------------|
:|-77-9-----9---7--9/12~~~~-|
:|--------------------------|
:|--------------------------|
:|--------------------------|

solo
:-7-8-10-8-7h8p7----7-------------7-8/10-7-10-10/12-12-14b--12-10--12-10-12-|
:----------------10---10-8-7-8-10-------------------------------------------|
:---------------------------------------------------------------------------|
:---------------------------------------------------------------------------|
:---------------------------------------------------------------------------|
:---------------------------------------------------------------------------|

:7-8-10-8-----------|
:---------10-8------|
:--------------10-9-|
:-------------------|
:-------------------|
:-------------------|

:-8-7-----------------------|
:-----10-8------------------|
:-----------10-9--7---------|
:-------------------10-9~~~-|
:---------------------------|
:---------------------------|

:-7-8-10-8-7h8p7----7-------------7-8/10-7-10-10/12-12-14b--12-10--12-10-12-|
:----------------10---10-8-7-8-10-------------------------------------------|
:---------------------------------------------------------------------------|
:---------------------------------------------------------------------------|
:---------------------------------------------------------------------------|
:---------------------------------------------------------------------------|

:7-8-10-8-----------|
:---------10-8------|
:--------------10-9-|
:-------------------|
:-------------------|
:-------------------|

:----------8----10---12--------------------------------------------|
:8h9p8--/5--------------12-----------------------------------------|
:------------/9----9----12--------------12-14-14b-14b-14b-14p12----|
:--------------------------12-10\9/10\9-------------------------14-|
:------------------------------------------------------------------|
:------------------------------------------------------------------|
   
:--------------------------------------------------------------------------|
:----------------------------------------------------------------------15b-|
:12h14p12-12----12--------------------------------12----14-12-12----12-----|
:------------14-----12-11-10-12-10-12/14-12-15-14----14----------14--------|
:--------------------------------------------------------------------------|
:--------------------------------------------------------------------------|

:----------------------------15h17p15h17p15h17p15h17p15--15~~~~-|
:---------------------------------------------------------------|
:---14b-12----12----12h14p12------------------------------------|
:12--------14----14---------------------------------------------|
:---------------------------------------------------------------|
:---------------------------------------------------------------|

play under the solo
:---------------------------------------------------------------------------|
:---------------------------------------------------------------------------|
:-----------------------------------5--5-5--5--5----------------------------|
:5--5-5--5--5-5--5-2--2-2--2-2-2--2-5--5-5--5--5--5-5--5-5-5-5-5-5--5-5-5---|
:5--5-5--5--5-5--5-2--2-2--2-2-2--2-3--3-3--3--3--3-3--5-5-5-5-5-5--5-5-5---|
:3--3-3--3--3-3--3-0--0-0--0-0-0--0--------------------3-3-3-3-3-3--3-3-3---|


:-----------------------------------------------------------------------|
:-----------------------------------------------------------------------|
:---------------------------------------5-5-5-5-5-5-5-5-----------------|
:5-5-5-5-5-5--5-5-5/4-2--2-2--2-2-2--2--5-5-5-5-5-5-5-5--5-5-5-5-5-5-5-5|
:5-5-5-5-5-5--5-5-5/4-2--2-2--2-2-2--2--3-3-3-3---3-3-3--5-5-5-5-5-5-5-5|
:3-3-3-3-3-3--3-3-3-2-0--0-0--0-0-0--0-------------------3-3-3-3-3-3-3-3|

                                                                -------
:|---------------------------------------------------------------------------|
:|------7-8---7-------------------7-8---7-------------------8-10b-10-10--10b-|
:|-55-7-----9---7--9/12~~~~--55-7-----9---7--9/12b~~~~--5-7------------------|
:|---------------------------------------------------------------------------|
:|---------------------------------------------------------------------------|
:|---------------------------------------------------------------------------|

                                                                                                               
:-----------------------------------|
:8h10p8-8\--------------------------|
:------------------7----------------|
:------------5/7-9---5-7-5-7bp5~~~~-|
:-----------------------------------|
:-----------------------------------|

gt1
repeat
  some men like to fish-ing... ...   ....
:3--------------------------0------0------3---------|
:3--------------------------0------1------3---------|
:0--------------------------0------0------0---------|
:0--------------------------2------2------0---------|
:2--------------------------2------3------2---------|
:3--------------------------0-------------3---------|

note: this is when is the repeated for the second time
gt2
:------------------------------------------------------|
:------------------------------------------------------|
:7777\4-44-99\77\55-44h5-5p4-4h5-5p4~~~~---------------|
:------------------------------------------------------|
:------------------------------------------------------|
:------------------------------------------------------|

                                         
:---------------------------------------|
:---------------------------------------|
:-7-(7)-7-7-7-7-7-7--5-5-x-x-x--5-x-x-x-|
:-7-(7)-7-7-7-7-7-7--5-5-x-x-x--5-x-x-x-|
:-5-(5)-5-5-5-5-5-5--3-3-x-x-x--3-x-x-x-|
:---------------------------------------|


:|------------------------------------------------------------------------------|
:|------7-8---7-------------------7-8---7-------------------7-8---7-------------|
:|-77-9-----9---7--9/12~~~~--77-9-----9---7--9/12b~~~~--77-9----9---7--9/12~~~~-|
:|------------------------------------------------------------------------------|
:|------------------------------------------------------------------------------|
:|------------------------------------------------------------------------------|


:--------------------------|
:--------------------------|
:-------7------------------|
:-5-7-9---5-7-5--7bp5~~~~--|
:--------------------------|
:--------------------------|

gt1
:----------------------------------------------------------|
:----------------------------------------------------------|
:----------------------------------------------------------|
:5-5-5-12-12-12-5-5-5-12-12-12-5-5-5-12-12-12--------5-(5)-|
:5-5-5-12-12-12-5-5-5-12-12-12-5-5-5-12-12-12--------5-(5)-|
:3-3-3-10-10-10-3-3-3-10-10-10-3-3-3-10-10-10-etc...-3-(3)-|

gt2
repeat 4 times
:--------------------|-----------------|
:--------------------|-----------------|
:------------7-------|-----------------|
:5h6p5-5h7p5---5h7p5-|-5-(5)-5h7p5-(5)-|
:--------------------|-----------------|
:--------------------|-----------------|
Comments