Metallica - Whiskey In The Jar Chords & Tabs

 

Whiskey In The Jar Chords & Tabs

Metallica Chords & Tabs

Version: 12 Type: Tab 0 ratings
1 star 2 stars 3 stars 4 stars 5 stars
comments

Whiskey In The Jar Tab

   
    ____________________
   /Whiskey In The Jar / This song is originally written as an Irish folk song.
  /Metallica          /  Then in 1972 Thin Lizzy made a 'heavy' version of it.
 /Garage Inc.        /   Finally Metallica dedicated this track to Thin Lizzy
/___________________/    in 1998 and it's probably the best version of it!
                          Tuning: Both Guitars, Full Step Down (DGCFAD)


INTRO:
Guitar 1:
 --------|-----------------|-----------------|-----------------|-----------------|
 --------|-----------------|-----------------|-----------------|-----------------|
 4---3---|-----------------|-----------------|-4-4-----4-4-----|---------4---3---|
 5---4---|-2-2-----2-2-----|-2-2-----2-2-----|-5-5-----5-5-----|-5-5-----5---4---|
 5---4---|-2-2-x-2-2-2-x-2-|-2-2-x-2-2-2-x-5-|-5-5-x-5-5-5-x-5-|-5-5-x-5-5---4---|
 3---2---|-0-0-x-0-0-0-x-0-|-0-0-x-0-0-0-x-3-|-3-3-x-3-3-3-x-3-|-3-3-x-3-3---2---|
Guitar 2:|
 --------|-----------------|-----------------|-----------------|-----------------|
 --------|----------------7|-8---7-----------|----------------7|-8---7-----------|
 --------|-----------7-7-9-|---9---7-9/12~---|-----------7-7-9-|---9---7-9/12b14-|
 --------|-----------------|-----------------|-----------------|-----------------|
 --------|-----------------|-----------------|-----------------|-----------------|
 --------|-----------------|-----------------|-----------------|-----------------|


|-----------------|-----------------|-----------------|-----------------|
|-----------------|-----------------|-----------------|-----------------|
|-----------------|-----------------|-4-4-----4-4-----|-4-4-----4-4-----|
|-2-2-----2-2-----|-2-2-----2-2-----|-5-5-----5-5-----|-5-5-----5-5-----|
|-2-2-x-2-2-2-x-2-|-2-2-x-2-2-2-x-5-|-5-5-x-5-5-5-x-5-|-5-5-x-5-5-5-x-5-|
|-0-0-x-0-0-0-x-0-|-0-0-x-0-0-0-x-3-|-3-3-x-3-3-3-x-3-|-3-3-x-3-3-3-x-3-|
|
|-----------------|-----------------|-----------------|-----------------|
|----------------7|-8---7-----------|-----------------|-7---------------|
|-r12~------7-7-9-|---9---7-9/12~---|-----------5-7-9-|---5-7-5-7b9p5---|
|-----------------|-----------------|-----------------|-----------------|
|-----------------|-----------------|-----------------|-----------------|
|-----------------|-----------------|-----------------|-----------------|



1st VERSE:
|-----------------|-----------------|-----------------|-----------------|
|-----------------|-----------------|-----------------|-----------------|
|-----------------|-----------------|-----------------|-----------------|
|-5-5-----5-5-----|-5-5-----5\4-----|-2-2-----2-2-----|-2-2-----2-2-x-5-|
|-5-5-x-5-5-5-x-5-|-5-5-x-5-5\4---2-|-2-2-x-2-2-2-x-2-|-2-2-x-2-2-2-x-3-|
|-3-3-x-3-3-3-x-3-|-3-3-x-3-3\2---0-|-0-0-x-0-0-0-x-0-|-0-0-x-0-0-0-----|
|
|-----------------|-----------------|-----------------|-----------------|
|-----------------|-----------------|-----------------|-----------------|
|-----------------|-4-4-----4-4-----|-----------------|-----------------|
|-----------------|-5-5-----5-5-----|-2-2-----2-2-----|-2-2-----2-2-----|
|-------------x-5-|-5-5-x-5-5-5-x-5-|-2-2-x-2-2-2-x-2-|-2-2-x-2-2-2-x-2-|
|-------------x-3-|-----x-3-----x-3-|-0-0-x-0-0-0-x-0-|-0-0-x-0-0-0-x-0-|
 As I was goin' over the Cork and Kerry mountains


|-----------------|-----------------|-----------------|-----------------|
|-----------------|-----------------|-----------------|-----------------|
|-5-5-----5-5-----|-5-5-----5-5-----|-4-4-----4-4-----|-4-4-----4-4-----|
|-5-5-x-5-5-5-x-5-|-5-5-x-5-5-5-----|-5-5-----5-5-----|-5-5-----5-5-----|
|-3-3-x-3-3-3-x-3-|-3-3-x-3-3-3-x-5-|-5-5-x-5-5-5-x-5-|-5-5-x-5-5-5-x-0-|
|-----------------|-------------x-3-|-----x-3-----x-3-|-----x-3-----x-0-|
|
|-----------------|-----------------|-----------------|-----------------|
|-----------------|-----------------|-----------------|-----------------|
|-5-5-----5-5-----|-5-5-----5-5-----|-----------------|-----------------|
|-5-5-x-5-5-5-x-5-|-5-5-x-5-5-5-x-5-|-5-5-----5-5-----|-5-5-----5-5-----|
|-3-3-x-3-3-3-x-3-|-3-3-x-3-3-3-x-3-|-5-5-x-5-5-5-x-5-|-5-5-x-5-5-5-x-5-|
|-----------------|-----------------|-3-3-x-3-3-3-x-3-|-3-3-x-3-3-3-x-3-|
 I saw Captain Farrel an' his money he was countin'


|-----------------|-----------------|-----------------|-----------------|
|-----------------|-----------------|-----------------|-----------------|
|-----------------|-----------------|-----------------|-----------------|
|-5-5-----5-5-----|-5-5-----5\4-----|-2-2-----2-2-----|-2-2-----2-2-x-5-|
|-5-5-x-5-5-5-x-5-|-5-5-x-5-5\4---2-|-2-2-x-2-2-2-x-2-|-2-2-x-2-2-2-x-3-|
|-3-3-x-3-3-3-x-3-|-3-3-x-3-3\2---0-|-0-0-x-0-0-0-x-0-|-0-0-x-0-0-0-----|
|
|-----------------|-----------------|-----------------|-----------------|
|-----------------|-----------------|-----------------|-----------------|
|-4-4-----4-4-----|-4-4-----4-4-----|-----------------|-----------------|
|-5-5-----5-5-----|-5-5-----5-5-----|-2-2-----2-2-----|-2-2-----2-2-----|
|-5-5-x-5-5-5-x-5-|-5-5-x-5-5-5-x-5-|-2-2-x-2-2-2-x-2-|-2-2-x-2-2-2-x-2-|
|-----x-5-----x-3-|-----x-3-----x-3-|-0-0-x-0-0-0-x-0-|-0-0-x-0-0-0-x-0-|
 I first produced my pistol and then produced my rapier


|-----------------|-----------------|-----------------|-----------------|
|-----------------|-----------------|-----------------|-----------------|
|-5-5-----5-5-----|-5-5-----5-5-----|-----------------|-----------------|
|-5-5-x-5-5-5-x-5-|-5-5-x-5-5-5-----|-5-5-----5-5-----|-5-5-----5---4---|
|-3-3-x-3-3-3-x-3-|-3-3-x-3-3-3-x-5-|-5-5-x-5-5-5-x-5-|-5-5-x-5-5---4---|
|-----------------|-------------x-3-|-3-3-x-3-3-3-x-3-|-3-3-x-3-3---2---|
|
|-----------------|-----------------|-----------------|-----------------|
|-----------------|-----------------|-----------------|----------------7|
|-5-5-----5-5-----|-5-5-----5-5-----|-4-4-----4-4-----|-4-4-------7-7-9-|
|-5-5-x-5-5-5-x-5-|-5-5-x-5-5-5-x-5-|-5-5-----5-5-----|-5-5-------------|
|-3-3-x-3-3-3-x-3-|-3-3-x-3-3-3-x-3-|-5-5-x-5-5-5-x-5-|-5-5-x-5---------|
|-----------------|-----------------|-----x-3-----x-3-|-----x-3---------|
 I said stand and deliver or the devil he may take ya



INTERLUDE:
|-----------------|-----------------|-----------------|-----------------|
|-----------------|-----------------|-----------------|-----------------|
|-----------------|-----------------|-4-4-----4-4-----|-4-4-----4---3---|
|-2-2-----2-2-----|-2-2-----2-2-----|-5-5-----5-5-----|-5-5-----5---4---|
|-2-2-x-2-2-2-x-2-|-2-2-x-2-2-2-x-5-|-5-5-x-5-5-5-x-5-|-5-5-x-5-5---4---|
|-0-0-x-0-0-0-x-0-|-0-0-x-0-0-0-x-3-|-3-3-x-3-3-3-x-3-|-3-3-x-3-3---2---|
|
|-----------------|-----------------|-----------------|-----------------|
|-8---7-----------|----------------7|-8---7-----------|---------------8-|
|---9---7-9/12~---|-----------7-7-9-|---9---7-9/12b14-|-r12~------7-9---|
|-----------------|-----------------|-----------------|-----------------|
|-----------------|-----------------|-----------------|-----------------|
|-----------------|-----------------|-----------------|-----------------|
                   yeah


|-----------------|-----------------|-----------------|-----------------|
|-----------------|-----------------|-----------------|-----------------|
|-----------------|-----------------|-4-4-----4-4-----|-4-4-----4-4-----|
|-2-2-----2-2-----|-2-2-----2-2-----|-5-5-----5-5-----|-5-5-----5-5-----|
|-2-2-x-2-2-2-x-2-|-2-2-x-2-2-2-x-5-|-5-5-x-5-5-5-x-5-|-5-5-x-5-5-5-x-5-|
|-0-0-x-0-0-0-x-0-|-0-0-x-0-0-0-x-3-|-3-3-x-3-3-3-x-3-|-3-3-x-3-3-3-x-3-|
|
|--------------------------|------------------------|-------------------|-----------------|
|-10b12-b12-10b12-b12-10-8-|-8h10p8---8\------------|7------------------|-----------------|
|--------------------------|------------------5-5/79|---5-7-5-7b9r7p5-5-|-----------------|
|--------------------------|------------------------|-------------------|-----------------|
|--------------------------|------------------------|-------------------|-----------------|
|--------------------------|------------------------|-------------------|-----------------|



2nd VERSE:
Both Guitars:
||-----------------|-----------------|-----------------|-----------------|
||-----------------|-----------------|-----------------|-----------------|
||-4-4-----4-4-----|-4-4-----4-4-3-3-|-----------------|---------------5-|
||-5-5-----5-5-----|-5-5-----5-5-4-4-|-2-2-----2-2-----|-2-2-----2-2-x-5-|
||-5-5-x-5-5-5-x-5-|-5-5-x-5-5-5-4-4-|-2-2-x-2-2-2-x-2-|-2-2-x-2-2-2-x-3-|
||-3-3-x-3-3-3-x-3-|-3-3-x-3-3-3-2-2-|-0-0-x-0-0-0-x-0-|-0-0-x-0-0-0-----|
  I took all of his money and it was a pretty penny
  She swore that she loved me, no, never would she leave me


 |-----------------|-----------------|-----------------|-----------------||
 |-----------------|-----------------|-----------------|-----------------||
 |-5-5-----5-5-----|-5-5-----5-5-----|-4-4-----4-4-----|-4-4-----4-4-4-4-||
 |-5-5-x-5-5-5-x-5-|-5-5-x-5-5-5-x-0-|-5-5-----5-5-----|-5-5-----5-5-5-5-||
 |-3-3-x-3-3-3-x-3-|-3-3-x-3-3-3-x-0-|-5-5-x-5-5-5-x-5-|-5-5-x-5-5-5-5-5-||
 |-----------------|-------------x-0-|-3-3-x-3-3-3-x-3-|-3-3-x-3-3-3-3-3-||
  I took all of his money, yeah, an I brought 'em home to Molly
  But the devil take that woman, yeah, for you know she tricked me easy



CHORUS:
1st Guitar:
|-5---------------|-----------------|-----------------|-----------------|
|-7---7-7-7-7-7-7-|-7-7-7-7-6-6-5-5-|-5---5---x-x-5---|-------x-x-x-5-55|
|-7---7-7-7-7-7-7-|-7-7-7-7-6-6-5-5-|-5---5---x-x-5---|-------x-x-x-5-55|
|-7---7-7-7-7-7-7-|-7-7-7-7-6-6-5-5-|-5---5---x-x-5---|-------x-x-x-5-55|
|-5---5-5-5-5-5-5-|-5-5-5-5-4-4-3-3-|-3---3---x-x-3---|-------x-x-x-3-33|
|-----------------|-----------------|-----------------|-----------------|
2nd Guitar:
|-5---5-5-5-5-5-5-|-5---5---5---5---|---------------------|-----------------|
|-7---7-7-7-7-7-7-|-8---7---5---7---|--8------------------|-----7-8---------|
|-7---7-7-7-7-7-7-|-7---7---7---7---|--9---------9------9-|-----------9-----|
|-7---7-7-7-7-7-7-|-7---7---7---7---|-10------10----------|-----------------|
|-5---5-5-5-5-5-5-|-5---5---5---5---|-10---10--------10---|-----------------|
|-----------------|-----------------|--8------------------|-----------------|
 Musha rain dum-a-do dum-a-da        Whack for my daddy-o


|-----------------|-----------------|-----------------|-----------------|
|-5-------5-5-5-5-|-5-5-5-5-5-5-5-5-|-----------------|-----------------|
|-5-------5-5-5-5-|-5-5-5-5-5-5-5-5-|-4-4-----4-4-----|-4-4-----4---3---|
|-5-------5-5-5-5-|-5-5-5-5-5-5-5-5-|-5-5-----5-5-----|-5-5-----5---4---|
|-3-------3-3-3-3-|-3-3-3-3-3-3-3-3-|-5-5-x-5-5-5-x-5-|-5-5-x-5-5---4---|
|-----------------|-----------------|-3-3-x-3-3-3-x-3-|-3-3-x-3-3---2---|
|
|------------------|-----------------|-----------------|-----------------|
|--8---------8-----|-----7-8---------|-----------------|----------------7|
|--9-------7---7-9-|-9---------9-----|-4-4-x-x-4-4-x-x-|-4-4-x-----7-7-9-|
|-10---------------|-----------------|-5-5-x-x-5-5-x-x-|-5-5-x-----------|
|-10---------------|-----------------|-5-5-x-x-5-5-x-x-|-3-3-x-----------|
|--8---------------|-----------------|-3-3-x-x-3-3-x-x-|-3-3-x-----------|
 Whack for my daddy-o                There's whiskey in the jar-o



INTERLUDE:
|-----------------|-----------------|-----------------|-----------------|
|-----------------|-----------------|-----------------|-----------------|
|-----------------|-----------------|-4-4-----4-4-----|---------4---3---|
|-2-2-----2-2-----|-2-2-----2-2-----|-5-5-----5-5-----|-5-5-----5---4---|
|-2-2-x-2-2-2-x-2-|-2-2-x-2-2-2-x-5-|-5-5-x-5-5-5-x-5-|-5-5-x-5-5---4---|
|-0-0-x-0-0-0-x-0-|-0-0-x-0-0-0-x-3-|-3-3-x-3-3-3-x-3-|-3-3-x-3-3---2---|
|
|-----------------|-----------------|-----------------|------------------|
|-8---7-----------|----------------7|-8---7-----------|----------------8-|
|---9---7-9/12----|-----------7-7-9-|---9---7-9/12----|-12~--------7-9---|
|-----------------|-----------------|-----------------|------------------|
|-----------------|-----------------|-----------------|------------------|
|-----------------|-----------------|-----------------|------------------|


|-----------------|-----------------|-----------------|-----------------|
|-----------------|-----------------|-----------------|-----------------|
|-----------------|-----------------|-4-4-----4-4-----|-4-4-----4-4-----|
|-2-2-----2-2-----|-2-2-----2-2-----|-5-5-----5-5-----|-5-5-----5-5-----|
|-2-2-x-2-2-2-x-2-|-2-2-x-2-2-2-x-5-|-5-5-x-5-5-5-x-5-|-5-5-x-5-5-5-x-5-|
|-0-0-x-0-0-0-x-0-|-0-0-x-0-0-0-x-3-|-3-3-x-3-3-3-x-3-|-3-3-x-3-3-3-x-3-|
|
|------------------------------|-------------------|-------------------|------------------|
|-b12r10-10b12-10b12r10-8-8h10-|-p8---8\-----------|-7-----------------|------------------|
|------------------------------|-------------5-5-79|---5-7-5-7b9-7b9r8-|-5----------------|
|------------------------------|-------------------|-------------------|------------------|
|------------------------------|-------------------|-------------------|------------------|
|------------------------------|-------------------|-------------------|------------------|



3rd VERSE:
|-----------------|-----------------|-----------------|-----------------|
|-----------------|-----------------|-----------------|-----------------|
|-4-4-----4-4-----|-4-4-----4-x-3-x-|-----------------|-----------------|
|-5-5-----5-5-----|-5-5-----5-x-4-x-|-2-2-----2-2-----|-2-2-----2-2-x-5-|
|-5-5-x-5-5-5-x-5-|-5-5-x-5-5-x-4-x-|-2-2-x-2-2-2-x-2-|-2-2-x-2-2-2-x-3-|
|-3-3-x-3-3-3-x-3-|-3-3-x-3-3-x-2-x-|-0-0-x-0-0-0-x-0-|-0-0-x-0-0-0-----|
|
|-----------------|-----------------|-----------------|------------------|
|-----------------|-----------------|-----------------|------------------|
|-----------------|-7-7-7-7---7h9\--|-----------------|-9-9-9-9----9h11-9|
|-----------------|-----------------|-9---------------|------------------|
|-----------------|-----------------|-----------------|------------------|
|-----------------|-----------------|-----------------|------------------|
 Being drunk and weiry I went to Molly's chamber


|-----------------|-----------------|-----------------|-----------------|
|-----------------|-----------------|-----------------|-----------------|
|-5-5-----5-5-----|-5-5-----5-5-----|-4-4-----4-4-----|-4-4-----4-4-4-4-|
|-5-5-x-5-5-5-x-5-|-5-5-x-5-5-5-x-0-|-5-5-----5-5-----|-5-5-----5-5-5-5-|
|-3-3-x-3-3-3-x-3-|-3-3-x-3-3-3-x-0-|-5-5-x-5-5-5-x-5-|-5-5-x-5-5-5-5-5-|
|-----------------|-------------x-0-|-3-3-x-3-3-3-x-3-|-3-3-x-3-3-3-3-3-|
|
|------------------|-----------------|-----------------|-----------------|
|------------------|---------8-8-----|-----------------|-------5-------5-|
|------------------|-----9-9-----9-7-|-7---------------|-----7---7---7---|
|-10---------------|-----------------|-----------------|-----------------|
|------------------|-----------------|-----------------|-----------------|
|------------------|-----------------|-----------------|-----------------|
 Taking Molly with me, but I never knew the danger


|-----------------|-----------------|-----------------|-----------------|
|-----------------|-----------------|-----------------|-----------------|
|-4-4-----4-4-----|-4-4-----4-4-3-3-|-----------------|---------------5-|
|-5-5-----5-5-----|-5-5-----5-5-4-4-|-2-2-----2-2-----|-2-2-----2-2-x-5-|
|-5-5-x-5-5-5-x-5-|-5-5-x-5-5-5-4-4-|-2-2-x-2-2-2-x-2-|-2-2-x-2-2-2-x-3-|
|-3-3-x-3-3-3-x-3-|-3-3-x-3-3-3-2-2-|-0-0-x-0-0-0-x-0-|-0-0-x-0-0-0-----|
|
|-----------------|-----------------|-----------------|-------------------|
|-----------------|-----------------|-----------------|-------------------|
|-7---------------|-7-7-7-7---7h9---|-----------------|-9-9-9-9-9----11p9-|
|-----------------|-----------------|-9---------------|-------------------|
|-----------------|-----------------|-----------------|-------------------|
|-----------------|-----------------|-----------------|-------------------|
 For about six or maybe seven, yeah, in walked Captain Farrel


|-----------------|-----------------|-----------------|-----------------|
|-----------------|-----------------|-----------------|-----------------|
|-5-5-----5-5-----|-5-5-----5-5-----|-4-4-----4-4-----|-4-4-----4-4-4-4-|
|-5-5-x-5-5-5-x-5-|-5-5-x-5-5-5-x-0-|-5-5-----5-5-----|-5-5-----5-5-5-5-|
|-3-3-x-3-3-3-x-3-|-3-3-x-3-3-3-x-0-|-5-5-x-5-5-5-x-5-|-5-5-x-5-5-5-5-5-|
|-----------------|-------------x-0-|-3-3-x-3-3-3-x-3-|-3-3-x-3-3-3-3-3-|
|
|------------------|-----------------|-----------------|-----------------|
|------------------|---------8-8-----|-----------------|-----------------|
|------------------|-----9-9-----9-7-|-7--------------9|\7---------------|
|-10---------------|-----------------|-----------------|-----------------|
|------------------|-----------------|-----------------|-----------------|
|------------------|-----------------|-----------------|-----------------|
 I jumped up, fired my pistol, and I shot him with both barrels, yeah



CHORUS:
|-5---------------|-----------------|-----------------|-----------------|
|-7---7-7-7-7-7-7-|-7-7-7-7-6-6-5-5-|-5---5---x-x-5---|-------x-x-x-5-55|
|-7---7-7-7-7-7-7-|-7-7-7-7-6-6-5-5-|-5---5---x-x-5---|-------x-x-x-5-55|
|-7---7-7-7-7-7-7-|-7-7-7-7-6-6-5-5-|-5---5---x-x-5---|-------x-x-x-5-55|
|-5---5-5-5-5-5-5-|-5-5-5-5-4-4-3-3-|-3---3---x-x-3---|-------x-x-x-3-33|
|-----------------|-----------------|-----------------|-----------------|
|
|-5---5-5-5-5-5-5-|-5---5---5---5---|---------------------|-----------------|
|-7---7-7-7-7-7-7-|-8---7---5---7---|--8------------------|-----7-8---------|
|-7---7-7-7-7-7-7-|-7---7---7---7---|--9---------9------9-|-----------9-----|
|-7---7-7-7-7-7-7-|-7---7---7---7---|-10------10----------|-----------------|
|-5---5-5-5-5-5-5-|-5---5---5---5---|-10---10--------10---|-----------------|
|-----------------|-----------------|--8------------------|-----------------|
 Musha rain dum-a-do dum-a-da        Whack for my daddy-o

[ Tab from: http://www.guitartabs.cc/tabs/m/metallica/whiskey_in_the_jar_tab_ver_12.html ]
|-----------------|-----------------|-----------------|-----------------|
|-5-------5-5-5-5-|-5-5-5-5-5-5-5-5-|-----------------|-----------------|
|-5-------5-5-5-5-|-5-5-5-5-5-5-5-5-|-4-4-----4-4-----|-4-4-----4---3---|
|-5-------5-5-5-5-|-5-5-5-5-5-5-5-5-|-5-5-----5-5-----|-5-5-----5---4---|
|-3-------3-3-3-3-|-3-3-3-3-3-3-3-3-|-5-5-x-5-5-5-x-5-|-5-5-x-5-5---4---|
|-----------------|-----------------|-3-3-x-3-3-3-x-3-|-3-3-x-3-3---2---|
|
|--8----8---8-7~----|-8-7~----8-7--7h8|p7~--------------|-----------------|
|--8----8-----------|-----------------|-----------------|----------------7|
|--9----9-----------|-----------------|-----------------|-----------7-7-9-|
|-10---10-----------|-----------------|-----------------|-----------------|
|-10---10-----------|-----------------|-----------------|-----------------|
|-------------------|-----------------|-----------------|-----------------|
 Whack for my daddy-o                  There's whiskey in the jar-o



SOLO:
|-----------------|-----------------|-----------------|-----------------|
|-----------------|-----------------|-----------------|-----------------|
|-----------------|-----------------|-4-4-----4-4-----|-4-4-----4-4-3-3-|
|-2-2-----2-2-----|-2-2-----2-2-----|-5-5-----5-5-----|-5-5-----5-5-4-4-|
|-2-2-x-2-2-2-x-2-|-2-2-x-2-2-2-x-5-|-5-5-x-5-5-5-x-5-|-5-5-x-5-5-5-4-4-|
|-0-0-x-0-0-0-x-0-|-0-0-x-0-0-0-x-3-|-3-3-x-3-3-3-x-3-|-3-3-x-3-3-3-2-2-|
|
|---------------------|-------------------7-8-|-10-8-7-7h8p7----7------|--------7-8/10---------|
|-8---7---------------|-----------------------|--------------10---10-8-|-7-8-10----------12-15-|
|---9---7-9/12~---12~-|---12~---12~---12~-----|------------------------|-----------------------|
|---------------------|-----------------------|------------------------|-----------------------|
|---------------------|-----------------------|------------------------|-----------------------|
|---------------------|-----------------------|------------------------|-----------------------|


|-----------------|-----------------|-----------------|-----------------|
|-----------------|-----------------|-----------------|-----------------|
|-----------------|---------------5-|-5-5-----5-5-----|-5-x-5-x-5-x-5-x-|
|-2-2-----2-2-----|-2-x-2-x-2-2-2-5-|-5-5-x-5-5-5-x-5-|-5-x-5-x-5-x-5-x-|
|-2-2-x-2-2-2-x-2-|-2-x-2-x-2-2-2-3-|-3-3-x-3-3-3-x-3-|-3-x-3-x-3-x-3-x-|
|-0-0-x-0-0-0-x-0-|-0-x-0-x-0-0-0---|-----------------|-----------------|
|
|-/12~---12----12-14b15---|-12------12--12-----------|-----------------------|--------------------------|
|-----------15------------|-----15----15---12--15-15\|\13--12--10------------|-13p12p10-----------------|
|-------------------------|--------------------------|-------------12--10--9-|---------12--10--9--7--5--|
|-------------------------|--------------------------|-----------------------|--------------------------|
|-------------------------|--------------------------|-----------------------|--------------------------|
|-------------------------|--------------------------|-----------------------|--------------------------|


|-----------------|-----------------|-----------------|-----------------|
|-----------------|-----------------|-----------------|-----------------|
|-4-4-----4-4-----|-4-4-----4-4-----|-4-4-----4-4-----|-4-4-----4-4-----|
|-5-5-----5-5-----|-5-5-----5-5-----|-5-5-----5-5-----|-5-5-----5-5-----|
|-5-5-x-5-5-5-x-5-|-5-5-x-5-5-5-x-5-|-5-5-x-5-5-5-x-5-|-5-5-x-5-5-5-x-5-|
|-3-3-x-3-3-3-x-3-|-3-3-x-3-3-3-x-3-|-3-3-x-3-3-3-x-3-|-3-3-x-3-3-3-x-3-|
|
|-------------|-------x-x---7-8-|-10-8-7-7h8p7----7------|--------7-8/10---------|
|-------------|-------x-x-------|--------------10---10-8-|-7-8-10----------12-15-|
|-4b6r4b6r4b6-|r4-----x-x-------|------------------------|-----------------------|
|-------------|-----------------|------------------------|-----------------------|
|-------------|-----------------|------------------------|-----------------------|
|-------------|-----------------|------------------------|-----------------------|


|-----------------|-----------------|-----------------|-----------------|
|-----------------|-----------------|-----------------|-----------------|
|-----------------|---------------5-|-5-5-----5-5-----|-5-x-5-x-5-5-5-5-|
|-2-2-----2-2-----|-2-x-2-x-2-2-2-5-|-5-5-x-5-5-5-x-5-|-5-x-5-x-5-5-5-5-|
|-2-2-x-2-2-2-x-2-|-2-x-2-x-2-2-2-3-|-3-3-x-3-3-3-x-3-|-3-x-3-x-3-3-3-3-|
|-0-0-x-0-0-0-x-0-|-0-x-0-x-0-0-0---|-----------------|-----------------|
|
|-/12~---12----12-14b15---|-12------12--12-----------|------------------------|-----------------------------|
|-----------15------------|-----15----15---12--15-15\|\13--12--10-------------|---------13----/15----/17----|
|-------------------------|--------------------------|-------------12--10--9--|-9h10h12----12-----12-----12-|
|-------------------------|--------------------------|------------------------|-----------------------------|
|-------------------------|--------------------------|------------------------|-----------------------------|
|-------------------------|--------------------------|------------------------|-----------------------------|


|-----------------|-----------------|-----------------|-----------------|
|-----------------|-----------------|-7-x-7-7---------|-7-x-7-7-----7-6-|
|-4-4-----4-4-----|-4-4-----4-4-----|-7-x-7-7---------|-7-x-7-7-----7-6-|
|-5-5-----5-5-----|-5-5-----5-5-----|-7-x-7-7---------|-7-x-7-7-----7-6-|
|-5-5-x-5-5-5-x-5-|-5-5-x-5-5-5-x-5-|-5-x-5-5---------|-5-x-5-5-----5-4-|
|-3-3-x-3-3-3-x-3-|-3-3-x-3-3-3-x-3-|-----------------|-----------------|
|
|----------------------|--------------------|---------------------------|-----------------|
|----------------------|------------------8-|-10b12-10b12-10b12p8---8h10|p8---8---8---3-2-|
|/12-12-12-12h14-12-10-|-9-10-12-------/9---|---------------------9-----|-------9---------|
|/12-12-12-12h14-12-10-|-9-10-12------------|---------------------------|-----------------|
|----------------------|--------------------|---------------------------|-----------------|
|----------------------|--------------------|---------------------------|-----------------|


|-----------------|-----------------|-----------------|-----------------|
|-5-x-5-5---------|-5-x-5-5---------|-5-x-5-5---------|-5-x-5-5---------|
|-5-x-5-5---------|-5-x-5-5---------|-5-x-5-5---------|-5-x-5-5---------|
|-5-x-5-5---------|-5-x-5-5---------|-5-x-5-5---------|-5-x-5-5---------|
|-3-x-3-3---------|-3-x-3-3---------|-3-x-3-3---------|-3-x-3-3---------|
|-----------------|-----------------|-----------------|-----------------|
|
|------------------|--------------/12-|-----------------|------------------|
|-1---3-1-3/5-3-/6-|-5-8-6-10-8-------|-8-8-8-8-7-8-5-5-|-5-5-5---7/8-8/10-|
|------------------|------------------|-----------------|------------------|
|------------------|------------------|-----------------|------------------|
|------------------|------------------|-----------------|------------------|
|------------------|------------------|-----------------|------------------|


|-----------------|-----------------|
|-----------------|----------------4|
|-4-x-4-4---------|-4-x-x-4---4-4-6-|
|-5-x-5-5---------|-5-x-x-5---------|
|-5-x-5-5---------|-5-x-x-5---------|
|-3-x-3-3---------|-3-x-x-3---------|
|
|------------15h17p15-----------15h17|p15~-----15~---------|
|-8-----15h17--------17p15h17p15-----|--------------------7|
|------------------------------------|---------------7-7-9-|
|------------------------------------|---------------------|
|------------------------------------|---------------------|
|------------------------------------|---------------------|



Double Guitar Solo:
|------------------|-----------------|-----------------|-----------------|
|-5---4------------|----------------4|-5---4-----------|---------------5-|
|---6---4-6/9~-----|-----------4-4-6-|---6---4-6/9~----|-----------4-6---|
|------------------|-----------------|-----------------|-----------------|
|------------------|-----------------|-----------------|-----------------|
|------------------|-----------------|-----------------|-----------------|
|
|------------------|-----------------|-----------------|-----------------|
|-8---7------------|----------------7|-8---7-----------|---------------8-|
|---9---7-9/12~----|-----------7-7-9-|---9---7-9/12b14-|-r12~------7-9---|
|------------------|-----------------|-----------------|-----------------|
|------------------|-----------------|-----------------|-----------------|
|------------------|-----------------|-----------------|-----------------|

|-----------------------|-----------------|-----------------|-----------------|
|-7b8-7b8-7b8-7b8r7-5h7-|-5---------------|-----------------|-----------------|
|-----------------------|-----------------|-4---------------|-----------------|
|-----------------------|-----------2-4-6-|---2-4-2-4b5-4b5-|-2~--------------|
|-----------------------|-----------------|-----------------|-----------------|
|-----------------------|-----------------|-----------------|-----------------|
|
|---------------------------------|-----------------|-----------------|-----------------|
|-10b11-10b11-10b11-10b11r10-8h10-|-8---------------|-----------------|-----------------|
|---------------------------------|-----------------|-7---------------|-----------------|
|---------------------------------|-----------5-7-9-|---5-7-5-7b8-7b8-|-5~--------------|
|---------------------------------|-----------------|-----------------|-----------------|
|---------------------------------|-----------------|-----------------|-----------------|



4th VERSE:
|-----------------|-----------------|-0---------------|-----------------|
|-----------------|-----------------|-0---------------|-----------------|
|-----------------|-----------------|-0---------------|-----------------|
|-----------------|-----------------|-2---------------|-----------------|
|-----------------|-----------------|-2---------------|-----------------|
|-----------------|-----------------|-0---------------|-----------------|
|
|-----------------|-----------------|-----------------|-----------------|
|-----------------|-----------------|-----------------|-----------------|
|-----------------|-----------------|-----------------|-----------------|
|-----------------|-----------------|-----------------|-----------------|
|-----------------|-----------------|-----------------|-----------------|
|-----------------|-----------------|-----------------|-----------------|
 Now some men like the fishin' an' some men like the fowlin'


|-0---------------|-----------------|-3---------------|-----------------|
|-1---------------|-----------------|-3---------------|-----------------|
|-0---------------|-----------------|-0---------------|-----------------|
|-2---------------|-----------------|-0---------------|-----------------|
|-3---------------|-----------------|-2---------------|-----------------|
|-----------------|-----------------|-3---------------|-----------------|
|
|-----------------|-----------------|-----------------|-----------------|
|-----------------|-----------------|-----------------|-----------------|
|-----------------|-----------------|-----------------|-----------------|
|-----------------|-----------------|-----------------|-----------------|
|-----------------|-----------------|-----------------|-----------------|
|-----------------|-----------------|-----------------|-----------------|
 Some men like to hear to hear the cannonball aroarin'


|-3---------------|-----------------|-0---------------|-----------------|
|-3---------------|-----------------|-0---------------|-----------------|
|-0---------------|-----------------|-0---------------|-0-0---0---0---0-|
|-0---------------|-----------------|-2---------------|-2---2-------2---|
|-2---------------|-----------------|-2---------------|-2---------------|
|-3---------------|-----------------|-0---------------|-----------------|
|
|-----------------|-----------------|-----------------|-----------------|
|-----------------|-----------------|-----------------|-----------------|
|-7----7----x-7-7-|-7-7-7-7-7-7-7---|-7/9-9-9-9-9-9-xx|-7/9-9-9-9\7-7\5-|
|-5----5----x-5-5-|-5-5-5-5-5-5-5---|-5/7-7-7-7-7-7-xx|-5/7-7-7-7\5-5\3-|
|-----------------|-----------------|-----------------|-----------------|
|-----------------|-----------------|-----------------|-----------------|
 Me I like sleeping, especially in my Molly's chamber


|-----------------|-3---0---3---0---|-3---------------|-----------------|
|-----------1---1-|-0h1-----0h1-----|-3---------------|-----------------|
|-----0-------0---|-----------------|-0---------------|-----------------|
|-------0h2-------|-----------------|-0---------------|-0-0-0-0-0-0-0-0-|
|-3---------------|-----------------|-2---------------|-2-2-2-2-2-2-2-2-|
|-----------------|-----------------|-3---------------|-3-3-3-3-3-3-3-3-|
|
|-----------------|-----------------|-----------------|-----------------|
|-----------------|-----------------|-----------------|-----------------|
|-5---5-5-5-5-5-5-|-4/5-5-5-4/5-5-5-|-5/7-7-7-7-7-7-7-|-7-7-7-7-7-7-7-7-|
|-3---3-3-3-3-3-3-|-2/3-3-3-2/3-3-3-|-3/5-5-5-5-5-5-5-|-5-5-5-5-5-5-5-5-|
|-----------------|-----------------|-----------------|-5-5-5-5-5-5-5-5-|
|-----------------|-----------------|-----------------|-----------------|
 But here I am in prison here I am with a ball an' chain, yeah



CHORUS:
|-5---------------|-----------------|-----------------|-----------------|
|-7---7-7-7-7-7-7-|-7-7-7-7-6-6-5-5-|-5---5---x-x-5---|-------x-x-x-5-55|
|-7---7-7-7-7-7-7-|-7-7-7-7-6-6-5-5-|-5---5---x-x-5---|-------x-x-x-5-55|
|-7---7-7-7-7-7-7-|-7-7-7-7-6-6-5-5-|-5---5---x-x-5---|-------x-x-x-5-55|
|-5---5-5-5-5-5-5-|-5-5-5-5-4-4-3-3-|-3---3---x-x-3---|-------x-x-x-3-33|
|-----------------|-----------------|-----------------|-----------------|
|
|-5---5-5-5-5-5-5-|-5---5---5---5---|---------------------|-----------------|
|-7---7-7-7-7-7-7-|-8---7---5---7---|--8------------------|-----7-8---------|
|-7---7-7-7-7-7-7-|-7---7---7---7---|--9---------9------9-|-----------9-----|
|-7---7-7-7-7-7-7-|-7---7---7---7---|-10------10----------|-----------------|
|-5---5-5-5-5-5-5-|-5---5---5---5---|-10---10--------10---|-----------------|
|-----------------|-----------------|--8------------------|-----------------|
 Musha rain dum-a-do dum-a-da        Whack for my daddy-o


|-----------------|-----------------|-----------------|-----------------|
|-5-------5-5-5-5-|-5-5-5-5-5-5-5-5-|-----------------|----------------4|
|-5-------5-5-5-5-|-5-5-5-5-5-5-5-5-|-4-4-----4-4-----|-4---------4-4-6-|
|-5-------5-5-5-5-|-5-5-5-5-5-5-5-5-|-5-5-----5-5-----|-5---------------|
|-3-------3-3-3-3-|-3-3-3-3-3-3-3-3-|-5-5-x-5-5-5-x-5-|-5---------------|
|-----------------|-----------------|-3-3-x-3-3-3-x-3-|-3---------------|
|
|------------------|-----------------|-----------------|-----------------|
|--8---------8-----|-----7-8---------|-----------------|----------------7|
|--9-------7---7-9-|-9---------9-----|-4-4-x-x-4-4-x-x-|-4---------7-7-9-|
|-10---------------|-----------------|-5-5-x-x-5-5-x-x-|-5---------------|
|-10---------------|-----------------|-5-5-x-x-5-5-x-x-|-3---------------|
|--8---------------|-----------------|-3-3-x-x-3-3-x-x-|-3---------------|
 Whack for my daddy-o                There's whiskey in the jar-o



INTERLUDE:
|------------------|-----------------|-----------------|-----------------|
|-5---4------------|----------------4|-5---4-----------|----------------5|
|---6---4-6/9~-----|-----------4-4-6-|---6---4-6/9~----|-----------4-4-6-|
|------------------|-----------------|-----------------|-----------------|
|------------------|-----------------|-----------------|-----------------|
|------------------|-----------------|-----------------|-----------------|
|
|-------------------|-----------------|-----------------|-----------------------|
|-8---7-------------|----------------7|-8---7-----------|---------------------7-|
|---9---7-9/12~-----|-12~-------7-7-9-|---9---7-9/12b14-|-r12b14r12b14r12-7-9---|
|-------------------|-----------------|-----------------|-----------------------|
|-------------------|-----------------|-----------------|-----------------------|
|-------------------|-----------------|-----------------|-----------------------|
                                                         Whiskey in the jar, oh


|------------------|-----------------|-----------------|-----------------|
|-5---4------------|-----------------|-----------------|-----------------|
|---6---4-6/9~-----|-----------------|-4---------------|-----------------|
|------------------|-----------2-4-6-|---2-4-2-4b5-4b5-|-2~--------------|
|------------------|-----------------|-----------------|-----------------|
|------------------|-----------------|-----------------|-----------------|
|
|-------------------|------------------|-----------------|-----------------|
|-8---7-------------|------------------|-----------------|-----------------|
|---9---7-9/12~-----|-----12-----------|-7---------------|-----------------|
|-------------------|------------5-7-9-|---5-7-5-7b8-7b8-|-5~--------------|
|-------------------|------------------|-----------------|-----------------|
|-------------------|------------------|-----------------|-----------------|



OUTRO:
|-----------------|-----------------|-----------------|-----------------|
|-----------------|-----------------|-----------------|-----------------|
|-----------------|-----------------|-----------------|-----------------|
|-5-5-x-5-5-5-x-5-|-5-5-x-5-5-5-x-5-|-5-5-x-5-5-5-x-5-|-5-5-x-5-5-5-x-5-|
|-5-5-x-5-5-5-x-5-|-5-5-x-5-5-5-x-5-|-5-5-x-5-5-5-x-5-|-5-5-x-5-5-5-x-5-|
|-3-3-x-3-3-3-x-3-|-3-3-x-3-3-3-x-3-|-3-3-x-3-3-3-x-3-|-3-3-x-3-3-3-x-3-|
|
|-----------------|-------------------|-----------------|------------------|
|-----------------|-------------------|-----------------|------------------|
|-----------------|-------------------|-----------------|-------/7---------|
|/9-x-x-x-7-x-x-x-|-5-x-x-7h9-5-x-x-x-|-9-x-x-x-7-x-x-x-|-5-x-x------------|
|-----------------|-------------------|-----------------|------------------|
|-----------------|-------------------|-----------------|------------------|
 Musha rain dum-a-do dum-a-da          Musha rain dum-a-do dum-a-da


|-----------------|-----------------|-----------------|-----------------|-----
|-----------------|-----------------|-----------------|-----------------|-----
|-----------------|-----------------|-----------------|-----------------|-4---
|-5-5-x-5-5-5-x-5-|-5-5-x-5-5-5-x-5-|-5-5-x-5-5-5-x-5-|-5-x-x-x-5-x-x-x-|-5---
|-5-5-x-5-5-5-x-5-|-5-5-x-5-5-5-x-5-|-5-5-x-5-5-5-x-5-|-5-x-x-x-5-x-x-x-|-5---
|-3-3-x-3-3-3-x-3-|-3-3-x-3-3-3-x-3-|-3-3-x-3-3-3-x-3-|-3-x-x-x-3-x-x-x-|-3---
|
|-----------------|-------------------|-----------------|-------------------|------
|-----------------|-------------------|-----------------|-------------------|------
|-----------------|-------------------|-----------------|-------------------|------
|/9-x-x-x-7-x-x-x-|-5-x-x-7h9-5-x-x-x-|-9-x-x-x-7-x-x-x-|-5-x-x-7h9-7---7h9-|-5~---
|-----------------|-------------------|-----------------|-------------------|------
|-----------------|-------------------|-----------------|-------------------|------
 Musha rain dum-a-do dum-a-da          Musha rain dum-a-do dum-a-da



27/ feb/ 05
Please mail me at Maitinin@gmail.com
Comments