Metallica - Whiskey In The Jar Chords & Tabs

 

Whiskey In The Jar Chords & Tabs

Metallica Chords & Tabs

Version: 10 Type: Tab 0 ratings
1 star 2 stars 3 stars 4 stars 5 stars
comments

Whiskey In The Jar Tab

METALLICA
WHISKEY IN THE JAR


1a) Kirk
d|--------------------------------------------------------------------| x2
A|--------------------------------------------------------------------|
F|--4-3--------------------------4-4-4--4-4-4--4-4-4--4---------------|
C|--5-4-2-2--2-2-2--2-2-2-2-2-2-5-5-5--5-5-5--5-5-5--5---------------|
G|--5-4-2-2--2-2-2--2-2-2--2-2-2-5-5-5--5-5-5--5-5-5--5---------------|
D|------0-0--0-0-0--0-0-0--0-0-0--------------------------------------|


1b) James
d|--------------------------| x3    |--------------------------|
A|----------8---7-----------|       |--------------------------|
F|-----77-7---7---7-9/12~~--|       |--------------------------|
C|--------------------------|       |--------------------------|
G|--------------------------|       |--00-0/4-0-2-0-0/2\0------|
D|--------------------------|       |--------------------------|


2) Riff 1   2x
d|---------------------------------------------------------------------| 
A|---------------------------------------------------------------------|
F|--4-4--4-4-4--4-4-4--4-4-4----------------------------5-5-5--5-5-5---|
C|--5-5--5-5-5--5-5-5--5-5-5-2-2-2--2-2-2--2-2-2--2-2-2-5-5-5--5-5-5---|
G|--5-5--5-5-5--5-5-5--5-5-5-2-2-2--2-2-2--2-2-2--2-2-2-3-3-3--3-3-3---|
D|---------------------------0-0-0--0-0-0--0-0-0--0-0-0----------------|
 As I was going over...

d|---------------------------------------------------------------------|
A|---------------------------------------------------------------------|
F|--5-5-5--5-5-5--4-4-4--4-4-4--4-4-4----------------------------------|
C|--5-5-5--5-5-5--5-5-5--5-5-5--5-5-5----------------------------------|
G|--3-3-3--3-3-3--5-5-5--5-5-5--5-5-5----------------------------------|
D|---------------------------------------------------------------------|

3a) Kirk
d|--------------------------------------------------------------------| x2
A|--------------------------------------------------------------------|
F|--4-3--------------------------4-4-4--4-4-4--4-4-4--4---------------|
C|--5-4-2-2--2-2-2--2-2-2-2-2-2-5-5-5--5-5-5--5-5-5--5---------------|
G|--5-4-2-2--2-2-2--2-2-2--2-2-2-5-5-5--5-5-5--5-5-5--5---------------|
D|------0-0--0-0-0--0-0-0--0-0-0--------------------------------------|


3b) James
d|-----------------------| x2  |---------------------------------------|
A|-------8---7-----------|     |-----8-10/12-12--10/12-12--10-8--8/10-8|
F|--77-7---7---7-9/12~~--|     |-7-9-----------------------------------|
C|-----------------------|     |---------------------------------------|
G|-----------------------|     |---------------------------------------|
D|-----------------------|     |---------------------------------------|


d|-----------------------|
A|-----------------------|
F|-----------------------|
C|-----------------------|
G|--4-0--2-0--0/2\0------|
D|-----------------------|



4) Riff 1   2x
d|---------------------------------------------------------------------|
A|---------------------------------------------------------------------|
F|--4-4--4-4-4--4-4-4--4-4-4----------------------------5-5-5--5-5-5---|
C|--5-5--5-5-5--5-5-5--5-5-5-2-2-2--2-2-2--2-2-2--2-2-2-5-5-5--5-5-5---|
G|--5-5--5-5-5--5-5-5--5-5-5-2-2-2--2-2-2--2-2-2--2-2-2-3-3-3--3-3-3---|
D|---------------------------0-0-0--0-0-0--0-0-0--0-0-0----------------|
 I took all of his...

d|---------------------------------------------------------------------|
A|---------------------------------------------------------------------|
F|--5-5-5--5-5-5--4-4-4--4-4-4--4-4-4----------------------------------|
C|--5-5-5--5-5-5--5-5-5--5-5-5--5-5-5----------------------------------|
G|--3-3-3--3-3-3--5-5-5--5-5-5--5-5-5----------------------------------|
D|---------------------------------------------------------------------|


5a) James
d|--5-5-5-5-5-5-5-4-3-3-3-3-3-3-3------|
A|--7-7-7-7-7-7-7-6-5-5-5-5-5-5-5------|      
F|--7-7-7-7-7-7-7-6-5-5-5-5-5-5-5-4-4-4|
C|--7-7-7-7-7-7-7-6-5-5-5-5-5-5-5-5-5-5|
G|--------------------------------5-5-5|
D|-------------------------------------|

5b) Kirk 
d|--5-5-5-5-5-5-5--3------------------|
A|--7-7-7-7-7-7-7--5-----5---6-----5--|
F|--7-7-7-7-7-7-7--5---5---5---5-----4|
C|--7-7-7-7-7-7-7--5-5-----------5---5|
G|--5-5-5-5-5-5-5--3-----------------5|
D|------------------------------------|
 Musha ring dum a doo...       Whiskey in the jar-o

6a) Kirk
d|--------------------------------------------------------------------| x2
A|--------------------------------------------------------------------|
F|--4-3--------------------------4-4-4--4-4-4--4-4-4--4---------------|
C|--5-4-2-2--2-2-2--2-2-2-2-2-2-5-5-5--5-5-5--5-5-5--5---------------|
G|--5-4-2-2--2-2-2--2-2-2--2-2-2-5-5-5--5-5-5--5-5-5--5---------------|
D|------0-0--0-0-0--0-0-0--0-0-0--------------------------------------|


6b) James
d|-----------------------| x2  |---------------------------------------|
A|-------8---7-----------|     |-----8-12\10-8--8-8/10\8---------------|
F|--77-7---7---7-9/12~~--|     |-7-9-----------------------------------|
C|-----------------------|     |---------------------------------------|
G|-----------------------|     |---------------------------------------|
D|-----------------------|     |---------------------------------------|

[ Tab from: http://www.guitartabs.cc/tabs/m/metallica/whiskey_in_the_jar_tab_ver_10.html ]
d|-----------------------|
A|-----------------------|
F|-----------------------|
C|-----------------------|
G|--4\0--2-0-0-0/2\0-----|
D|-----------------------|



7a) Riff 1    2x
d|---------------------------------------------------------------------| 
A|---------------------------------------------------------------------|
F|--4-4--4-4-4--4-4-4--4-4-4----------------------------5-5-5--5-5-5---|
C|--5-5--5-5-5--5-5-5--5-5-5-2-2-2--2-2-2--2-2-2--2-2-2-5-5-5--5-5-5---|
G|--5-5--5-5-5--5-5-5--5-5-5-2-2-2--2-2-2--2-2-2--2-2-2-3-3-3--3-3-3---|
D|---------------------------0-0-0--0-0-0--0-0-0--0-0-0----------------|
 Being drunk and weary...

d|---------------------------------------------------------------------|
A|---------------------------------------------------------------------|
F|--5-5-5--5-5-5--4-4-4--4-4-4--4-4-4----------------------------------|
C|--5-5-5--5-5-5--5-5-5--5-5-5--5-5-5----------------------------------|
G|--3-3-3--3-3-3--5-5-5--5-5-5--5-5-5----------------------------------|
D|---------------------------------------------------------------------|

7b)
d|---------------------------------------------------------------------|  x2
A|---------------------------------------------------------------------|
F|--3/5-3-3-3/5-3----3/5-5-5-5/7-5---------------------7/9-7-7/9-7-----|
C|----------------5-----------------12-12-15-15-12-12------------------|
G|---------------------------------------------------------------------|
D|---------------------------------------------------------------------|

8a) James
d|--5-5-5-5-5-5-5-4-3-3-3-3-3-3-3------|
A|--7-7-7-7-7-7-7-6-5-5-5-5-5-5-5------|      
F|--7-7-7-7-7-7-7-6-5-5-5-5-5-5-5-4-4-4|
C|--7-7-7-7-7-7-7-6-5-5-5-5-5-5-5-5-5-5|
G|--------------------------------5-5-5|
D|-------------------------------------|

8b) Kirk 
d|--5-5-5-5-5-5-5--3------------------|
A|--7-7-7-7-7-7-7--5-----5---6-----5--|
F|--7-7-7-7-7-7-7--5---5---5---5-----4|
C|--7-7-7-7-7-7-7--5-5-----------5---5|
G|--5-5-5-5-5-5-5--3-----------------5|
D|------------------------------------|
 Musha ring dum a doo...       Whiskey in the jar-o


----------------------
-  SOLO 
----------------------
d|--7-8-10-8-7h8p7----7-------------7-8-10--8-10-10/12-12-10-12-12/15--|
A|-----------------10---10-8-7-8-10------------------------------------|
F|---------------------------------------------------------------------|
C|---------------------------------------------------------------------|
G|---------------------------------------------------------------------|
D|---------------------------------------------------------------------|

d|--12-10-12-10-12--7-10--8-7-5-------8\7\5----------------------------|
A|-----------------------------8-6-5---------8-6-5--7--4~~~~-----------|
F|---------------------------------------------------------------------|
C|---------------------------------------------------------------------|
G|---------------------------------------------------------------------|
D|---------------------------------------------------------------------|



d|--7-8-10-8-7h8p7----7-------------7-8-10--8-10-10/12-12-10-12-12/15--|
A|-----------------10---10-8-7-8-10------------------------------------|
F|---------------------------------------------------------------------|
C|---------------------------------------------------------------------|
G|---------------------------------------------------------------------|
D|---------------------------------------------------------------------|


d|--12-10-12-10-12--7-10--8-7-5----------------7---10--12~~------------|
A|-----------------------------8-6-5--5h6p5-8----5---5-----------------|
F|---------------------------------------------------------------------|
C|---------------------------------------------------------------------|
G|---------------------------------------------------------------------|
D|---------------------------------------------------------------------|


d|------------------------------------------------------------12-------|
A|---8-8h10-10-10p8--8h10-8-----8----------------------8--10-----8-----|
F|--9---------------9--------7h9--7-6-5--7-5-9-5-10--9---9--9----------|
C|---------------------------------------------------------------------|
G|---------------------------------------------------------------------|
D|---------------------------------------------------------------------|


d|----------------15h17p15h17p15---------------------------------------|
A|---------15/17-------------------------------------------------------|
F|--12/14--------------------------------------------------------------|
C|---------------------------------------------------------------------|
G|---------------------------------------------------------------------|
D|---------------------------------------------------------------------|




9)
d|------------------------| x2 d|--------------------------------------|
A|------------------------|    A|--------------------------------------|
F|-------7---6------------|    F|--------------------------------------|
C|--77-7---7---7-9/12~~~--|    C|--7-9-7-9h11-9h11-9h11-9h11-11p9-7/9-7|
G|------------------------|    G|--------------------------------------|
D|------------------------|    D|--------------------------------------|

d|-----------------------|
A|-----------------------|
F|-----------------------|
C|-----------------------|
G|--0-4-0-2-0--0-0/2-0---|
D|-----------------------|


10)
d--3---0---0--3
A--3---0---1--3
F--0---0---0--0
C--0---2---2--0
G--2---2---3--2
D--3---0------3
"Well some men like a-fishin'"
Comments