Metallica - Whiskey In The Jar Chords & Tabs

 

Metallica Chords & Tabs

Version: 1 Type: Tab 1 rating
1 star 2 stars 3 stars 4 stars 5 stars
comments

Whiskey In The Jar Tab




Whiskey in the Jar




Tune all guitars down 1 full step
a1)
d------------------------------------------------------------------------------------
A------------------------------------------------------------------------------------
F--4--3----------------------------4-4-4--4-4-4--4-4-4—-4-4--3-----------------------
C--5--4--2-2--2-2-2--2-2-2--2-2-2--5-5-5--5-5-5--5-5-5—-5-5--4--2-2--2-2-2--2-2-2—---
G--5--4--2-2--2-2-2--2-2-2--2-2-2--5-5-5--5-5-5--5-5-5—-5-5--4--2-2--2-2-2—-2-2-2----
D--------0-0--0-0-0--0-0-0--0-0-0-------------------------------0-0--0-0-0—-0-0-0----
                                pm             pm             pm              pm             pm              pm             pm        pm  pm         pm             pm             pm		
d-----------------------------------------------------------------------
A-----------------------------------------------------------------------
F—--------4-4-4--4-4-4--4-4-4--4-4-4------------------------------------
C--2-2-2--5-5-5--5-5-5--5-5-5--5-5-5------------------------------------
G--2-2-2--5-5-5--5-5-5--5-5-5--5-5-5------------------------------------
D--0-0-0----------------------------------------------------------------
[ Tab from: http://www.guitartabs.cc/tabs/m/metallica/whiskey_in_the_jar_tab.html ]
1b) 
E-------------------------      -------------------------------
B-------8---7-------------      -------------------------------
G--/7-7---7---7-9/12vvvv-- 3x   -------------------------------
D-------------------------      -------5---4-------------------
A-------------------------      --/5-5---5---5-----------------
E-------------------------      ---------------7\3-------------
 
Play 1a and 1b together. Finger it out by hearing the song. 
 
 
2)
d------------------------------------------------------------------------------------
A----------------------------------------------------------5-5-5--5-5-5--5-5-5—-5-5-5
F--4-4-4--4-4-4--4-4-4--4-4-4--3---------------------------5-5-5--5-5-5--5-5-5--5-5-5
C--5-5-5--5-5-5--5-5-5--5-5-5--4-2-2--2-2-2--2-2-2--2-2-2--5-5-5--5-5-5--5-5-5—-5-5-5
G--5-5-5--5-5-5--5-5-5--5-5-5--4-2-2--2-2-2--2-2-2--2-2-2----------------------------
D--------------------------------0-0--0-0-0--0-0-0--0-0-0----------------------------

d------------------------------------------------------------------------------------
A------------------------------------------------------------------------------------
F--4-4-4--4-4-4--4-4-4--4-4-4--------------------------------------------------------
C--5-5-5--5-5-5--5-5-5--5-5-5--------------------------------------------------------
G--5-5-5--5-5-5--5-5-5--5-5-5--------------------------------------------------------
D------------------------------------------------------------------------------------

d------------------------------------------------------------------------------------
A-------------------------------------------------------5--5-5--5-5-5--5-5-5—-5-5-5--
F--4-4-4--4-4-4--4-4-4--4-4—-3--------------------------5--5-5--5-5-5--5-5-5--5-5-5--
C--5-5-5--5-5-5--5-5-5--5-5--4--2-2--2-2-2--2-2-2--2-2--5--5-5--5-5-5--5-5-5--5-5-5--
G--5-5-5--5-5-5--5-5-5--5-5--4--2-2--2-2-2--2-2-2--2-2-------------------------------
D-------------------------------0-0--0-0-0--0-0-0--0-0-------------------------------

d------------------------------------------------------------------------------------
A------------------------------------------------------------------------------------
F--4-4-4--4-4-4--4-4-4--4-4-4--------------------------------------------------------
C--5-5-5--5-5-5--5-5-5--5-5-5--------------------------------------------------------
G--5-5-5--5-5-5--5-5-5--5-5-5--------------------------------------------------------
D------------------------------------------------------------------------------------

 
1a+1b :1x
2 :1x
1a+1b :1x
2 :1x
 
I couldn’t finger out the Refrain.
 
/ \ = slide
v = vibrato
pm = palm mute
 
 
 

Comments