Metallica - Whiskey In The Jar Chords & Tabs

 

Whiskey In The Jar Chords & Tabs

Metallica Chords & Tabs

Version: 1 Type: Bass Tab 0 ratings
1 star 2 stars 3 stars 4 stars 5 stars
comments

Whiskey In The Jar Bass Tab

METALLICA - WHISKEY IN THE JAR


Tune your bass down two steps (FCGD)

F|--------------------------|--------------------------|--------------------------|
C|--------------------------|--------------------------|--------------------------|
G|--------------------------|--------------------------|--------------------------|
D|--0--0--0--0--0--0--0--0--|--0--0--0--0--0--0--0--2--|--3--3--3--3--3--3--3--3--|

|-------------------------|--------------------------|--------------------------|
|-------------------------|--------------------------|--------------------------|
|-------------------------|--------------------------|--------------------------|
|--3--3--3--3--3----2p-0--|--0--0--0--0--0--0--0--0--|--0--0--0--0--0--0--0--2--|

|--------------------------|--------------------------|------------------------|
|--------------------------|--------------------------|------------------------|
|--------------------------|--------------------------|------------------------|
|--3--3--3--3--3--3--3--3--|--3--3--3--3--3--3--3--0--|--3--3----3--3--3----3--|

|--------------------------|
|--------------------------|
|-----------------------5--|
|--3--3----3--3--3--5/7----|

|------------------------|------------------------|------------------------|
|------------------------|------------------------|------------------------|
|--7--7----7--7--7----7--|--7--7----7--7--7----5--|--3--3----3--3--3----3--|
|------------------------|------------------------|------------------------|

|------------------------|
|------------------------|
|--3--3----3--3--3-------|
|---------------------5--|

|--------------------------|--------------------------|------------------------|
|--------------------------|--------------------------|------------------------|
|--------------------------|--------------------------|------------------------|
|--3--3--3--3--3--3--3--3--|--3--3--3--3--3--3--3--0--|--3--3----3--3--3----3--|

|--------------------------|
|--------------------------|
|-----------------------5--|
|--3--3----3--3--3--5/7----|

|------------------------|------------------------|------------------------|
|------------------------|------------------------|------------------------|
|--7--7----7--7--7----7--|--7--7----7--7--7----5--|--3--3----3--3--3----3--|
|------------------------|------------------------|------------------------|

|------------------------|
|------------------------|
|--3--3----3--3--3-------|
|---------------------5--|

|--------------------------|--------------------------|--------------------------|
|--------------------------|--------------------------|--------------------------|
|--------------------------|--------------------------|--------------------------|
|--0--0--0--0--0--0--0--0--|--0--0--0--0--0--0--0--2--|--3--3--3--3--3--3--3--3--|

|-------------------------|--------------------------|--------------------------|
|-------------------------|--------------------------|--------------------------|
|-------------------------|--------------------------|--------------------------|
|--3--3--3--3--3----2p-0--|--0--0--0--0--0--0--0--0--|--0--0--0--0--0--0--0--2--|

|--------------------------|--------------------------|------------------------|
|--------------------------|--------------------------|------------------------|
|--------------------------|--------------------------|------------------------|
|--3--3--3--3--3--3--3--3--|--3--3--3--3--3--3--3--0--|--3--3----3--3--3----3--|

|--------------------------|
|--------------------------|
|-----------------------5--|
|--3--3----3--3--3--5/7----|

|------------------------|------------------------|------------------------|
|------------------------|------------------------|------------------------|
|--7--7----7--7--7----7--|--7--7----7--7--7----5--|--3--3----3--3--3----3--|
|------------------------|------------------------|------------------------|

|------------------------|
|------------------------|
|--3--3----3--3--3-------|
|---------------------5--|

|--------------------------|--------------------------|------------------------|
|--------------------------|--------------------------|------------------------|
|--------------------------|--------------------------|------------------------|
|--3--3--3--3--3--3--3--3--|--3--3--3--3--3--3--3--0--|--3--3----3--3--3----3--|

|--------------------------|
|--------------------------|
|-----------------------5--|
|--3--3----3--3--3--5/7----|

|------------------------|------------------------|------------------------|
|------------------------|------------------------|------------------------|
|--7--7----7--7--7----7--|--7--7----7--7--7----5--|--3--3----3--3--3----3--|
|------------------------|------------------------|------------------------|

|------------------------|
|------------------------|
|--3--3----3--3--3-------|
|---------------------5--|

|------------------------|-------------------------|-------------------------|
|------------------------|-------------------------|-------------------------|
|------------------------|-------------------------|--5----5--5--5--5--5--5--|
|--3--3----3--3--3----3--|--3--3----3--3--5--7--5--|-------------------------|

|--------------------------|-------------------------|---------------------------|
|--------------------------|-------------------------|------------------------8--|
|--5--5--5--5--5--5--7--5--|--3----3--3--3--3--3--3--|--3--3--3--3--3--8--10-----|
|--------------------------|-------------------------|---------------------------|

|----------------------------------|------------------------------|
|--10--10--10--10--10--10--10--10--|--10--10--10--8---------------|
|----------------------------------|-----------------10--8--------|
|----------------------------------|------------------------10\---|

|--------------------------|------------------------|
|--------------------------|------------------------|
|--------------------------|------------------------|
|--3--3--3--3--3--3--3--3--|--3--3--3--0--3----2----|

|--------------------------|--------------------------|--------------------------|
|--------------------------|--------------------------|--------------------------|
|--------------------------|--------------------------|--------------------------|
|--0--0--0--0--0--0--0--0--|--0--0--0--0--0--0--0--2--|--3--3--3--3--3--3--3--3--|

|-------------------------|--------------------------|--------------------------|
|-------------------------|--------------------------|--------------------------|
|-------------------------|--------------------------|--------------------------|
|--3--3--3--3--3----2p-0--|--0--0--0--0--0--0--0--0--|--0--0--0--0--0--0--0--2--|

|--------------------------|--------------------------|------------------------|
|--------------------------|--------------------------|------------------------|
|--------------------------|--------------------------|------------------------|
|--3--3--3--3--3--3--3--3--|--3--3--3--3--3--3--3--0--|--3--3----3--3--3----3--|

|--------------------------|
|--------------------------|
|-----------------------5--|
|--3--3----3--3--3--5/7----|

|------------------------|------------------------|------------------------|
|------------------------|------------------------|------------------------|
|--7--7----7--7--7----7--|--7--7----7--7--7----5--|--3--3----3--3--3----3--|
|------------------------|------------------------|------------------------|

|------------------------|
|------------------------|
|--3--3----3--3--3-------|
|---------------------5--|

|--------------------------|--------------------------|------------------------|
|--------------------------|--------------------------|------------------------|
|--------------------------|--------------------------|------------------------|
|--3--3--3--3--3--3--3--3--|--3--3--3--3--3--3--3--0--|--3--3----3--3--3----3--|

|--------------------------|
|--------------------------|
|-----------------------5--|
|--3--3----3--3--3--5/7----|

|------------------------|------------------------|------------------------|
|------------------------|------------------------|------------------------|
|--7--7----7--7--7----7--|--7--7----7--7--7----5--|--3--3----3--3--3----3--|
|------------------------|------------------------|------------------------|

|------------------------|
|------------------------|
|--3--3----3--3--3-------|
|---------------------5--|

|------------------------|-------------------------|-------------------------|
|------------------------|-------------------------|-------------------------|
|------------------------|-------------------------|--5----5--5--5--5--5--5--|
|--3--3----3--3--3----3--|--3--3----3--3--5--7--5--|-------------------------|
[ Tab from: http://www.guitartabs.cc/tabs/m/metallica/whiskey_in_the_jar_btab.html ]
|--------------------------|-------------------------|---------------------------|
|--------------------------|-------------------------|------------------------8--|
|--5--5--5--5--5--5--7--5--|--3----3--3--3--3--3--3--|--3--3--3--3--3--8--10-----|
|--------------------------|-------------------------|---------------------------|

|----------------------------------|------------------------------|
|--10--10--10--10--10--10--10--10--|--10--10--10--8---------------|
|----------------------------------|-----------------10--8--------|
|----------------------------------|------------------------10\---|

|--------------------------|------------------------|
|--------------------------|------------------------|
|--------------------------|------------------------|
|--3--3--3--3--3--3--3--3--|--3--3--3--0--3----2----|

 SOLO
|--------------------------|--------------------------|--------------------------|
|--------------------------|--------------------------|--------------------------|
|--------------------------|--------------------------|--------------------------|
|--0--0--0--0--0--0--0--0--|--0--0--0--0--0--0--0--2--|--3--3--3--3--3--3--3--3--|

|--------------------------|--------------------------|--------------------------|
|--------------------------|--------------------------|--------------------------|
|--------------------------|--------------------------|-----------------------5--|
|--3--3--3--3--3--3--3--3--|--0--0--0--0--0--0--0--0--|--0--0--0--0--0--0--0-----|

|--------------------------|-------------------------------|
|--------------------------|-------------------------------|
|--3--3--3--3--3--3--3--3--|--3--3-3-3-3-3-3-3-3-3-3-3--3--|
|--------------------------|-------------------------------|

|------------------------|-------------------------|------------------------|
|------------------------|-------------------------|------------------------|
|------------------------|-------------------------|------------------------|
|--3--3----3--3--3----3--|--3--3----3--3--3/-10\---|--3--3----3--3--3----3--|

|--------------------------|--------------------------|--------------------------|
|--------------------------|--------------------------|--------------------------|
|-----------------------5--|--7--7--7--7--7--7--7--7--|--7--7--7--7--7--7--7--5--|
|--3--3----3--3--3--5/7----|--------------------------|--------------------------|

|--------------------------|-------------------------------|
|--------------------------|-------------------------------|
|--3--3--3--3--3--3--3--3--|--3--3-3-3-3-3-3-3-3-3-3-3--5--|
|--------------------------|-------------------------------|

|------------------------|--------------------------|-------------------------|
|------------------------|---------5-------------5--|-------------------------|
|---------5----------5-5-|------------5----5--5-----|--5----5--5--5--5--5--5--|
|--3---------3----3------|--3--3-3------------------|-------------------------|

|--------------------------|------------------------|-------------------------|
|-----------------5--5-----|------------------------|-------------------------|
|--5--5--5--5--5--------5--|--3----3--3----3--5--3--|--3----3--3--3--3--2--3--|
|--------------------------|------------------------|-------------------------|

|-------------------------|
|-------------------------|
|--3--3--3--3----3--3--3--|
|-------------------------|

|--------------------------|-------------------------|--------------------------|
|--------------------------|-------------------------|--------------------------|
|--3--3--3--0--3--3--3--5--|-------------------------|--------------------------|
|--------------------------|--3----3--3--3--3--3--3--|--3--3--0-0-2-2-3----2----|

|--------------------------|--------------------------|
|--------------------------|--------------------------|
|--------------------------|--------------------------|
|--0--0--0--0--0--0--0--0--|--0--0--0--0--0--0--0--2--|

|--------------------------|-------------------------|--------------------------|
|--------------------------|-------------------------|--------------------------|
|--------------------------|-------------------------|--------------------------|
|--3--3--3--3--3--3--3--3--|--3--3--3--3--3\-2--1----|--0--0--0--0--0--0--0--0--|

|--------------------------|--------------------------|-------------------------|
|--------------------------|--------------------------|-------------------------|
|--------------------------|--------------------------|-------------------------|
|--0--0--0--0--0--0--0--2--|--3--3--3--3--3--3--3--3--|--3--3--3----3--3--0--2--|

 INTERLUDE
|---------------------|---------------------|----------------------|
|---------------------|---------------------|----------------------|
|---------------------|------------------5--|--7-------------------|
|--3--------3------3--|--------------5-7----|---------0--0------0--|

|-----------------------|----------------------|----------------------|
|-----------------------|----------------------|----------------------|
|-----------------7--5--|--3--------3----3--0--|--3----------0--3--0--|
|--0------0--0----------|----------------------|----------------------|

|---------------------|---------------------|-----------------------|
|---------5-----------|----------5----------|-----------------------|
|---------------------|---------------------|-----------------------|
|--3---------------3--|---------------0--2--|--3------3--3--3--3----|

|--------------------------|------------------------|-------------------------|
|--------------------------|------------------------|-------------------------|
|-----------------------5--|--7------7--7--7--7--7--|--7--7--7--7----7--5--2--|
|--3--3--3--3----3--5/7----|------------------------|-------------------------|

|----------------------|-------------------------|--------------------------|
|----------------------|-------------------------|--------------------------|
|--3------3--3------3--|--3----3--3--2--3--2--0--|--------------------------|
|----------------------|-------------------------|--3--3--3--3--3--3--3--3--|

|--------------------------|--------------------------------|
|--------------------------|--------------------------------|
|--------------------------|--17----17--17--17--17--17--17--|
|--3--3--3--3--3/-5--7--5--|--------------------------------|

|----------------------------------|----------------------------------|
|----------------------------------|----------------------------------|
|--17--17--17--17--17--16--16--15--|--13h15---15--15--15--15--15--15--|
|----------------------------------|----------------------------------|

|----------------------------------|----------------------------------|
|----------------------------------|----------------------------------|
|--15--15--15--15--15--15--15--15--|--15--15--15--15--15--15--15--15--|
|----------------------------------|----------------------------------|

|--------------------------------|--------------------------|
|--------------------------------|--------------------------|
|--15--15--15--15--15--15--------|--------------------------|
|--------------------------15\---|--3--3--3--3--3--3--3--3--|

|------------------------|--------------------------|--------------------------|
|------------------------|--------------------------|--------------------------|
|------------------------|--------------------------|--------------------------|
|--3--3--3--3--3----2----|--0--0--0--0--0--0--0--0--|--0--0--0--0--0--0--0--2--|

|--------------------------|-------------------------|--------------------------|
|--------------------------|-------------------------|--------------------------|
|--------------------------|-------------------------|--------------------------|
|--3--3--3--3--3--3--3--3--|--3--3--3--3--3----2p-0--|--0--0--0--0--0--0--0--0--|

|--------------------------|--------------------------|
|--------------------------|--------------------------|
|--------------------------|--------------------------|
|--0--0--0--0--0--0--0--0--|--3--3--3--3--3--3--3--3--|

|--------------------------||---------------------------|
|--------------------------||*--------------------------|
|--------------------------||*--------------------------|
|--3--3--3--3--3--3--3--0--||---3--3--3--3--3--3--3--3--|

                            2x
|---------------------------||--------------------------|
|--------------------------*||--------------------------|
|--------------------------*||--------------------------|
|--3--3--3--3--3--3--0--2---||--3--3--3--3--3--3--3--3--|

|--------------------------|--------------------------||
|--------------------------|--------------------------||
|--------------------------|--------------------------||
|--3--3--3--3--0--2--3--0--|--3------3/-8--8/-15--15\-||

Comments