Metallica - Whiplash Chords & Tabs

 

Whiplash Chords & Tabs

Metallica Chords & Tabs

Version: 1 Type: Tab 2 ratings
1 star 2 stars 3 stars 4 stars 5 stars
comments

Whiplash Tab

#----------------------------------PLEASE NOTE---------------------------------#
#This file is the author's own work and represents their interpretation of the #
#song. You may only use this file for private study, scholarship, or research. #
#------------------------------------------------------------------------------##

"Whiplash"
Kill em' all
Metallica

Do the power chords fast.(better to listen to the song)

|---------|(Repeat 3x)
|---------|
|---------|
|-7-7-7-7-|
|-5-5-5-5-|
|---------|


|-----------|---------------------------------------|
|-----------|---------------------------------------|
|-----------|---------------------------------------|
|-7-7-7-7-7-|---------------------------------------|
|-5-5-5-5-5-|-9--------9--------9--------9--------7-|
|---------0-|-7--------7--------7--------7--------7-|

Alternet Pick(down up)

|----------------------------|(repeat 9x)
|----------------------------|
|----------------------------|
|----------------------7-6-5-|
|----------------------5-4-3-|
|-0-0-0-0-0-0-0-0-0-0-0------|
.......................PM

|----------------------------------|(Repeat 7x)
|----------------------------------|
|----------------------------------|
|------------------------------7/8-|
|------------------------------5/6-|
|-0-0-0-0-0-0-0-0-0-0-0-0-0-0-0----|
...............................PM

|---------------|(Repeat 3x)
|---------------|
|---------------|
|-8--7-6-5------|
|-6--5-4-3------|
|---------------|


|----------------------------|(repeat 5x)
|----------------------------|
|----------------------------|
|----------------------7-6-5-|
|----------------------5-4-3-|
|-0-0-0-0-0-0-0-0-0-0-0------|
.......................PM

|----------------------------------|(Repeat 4x)
|----------------------------------|
|----------------------------------|
|------------------------------7/8-|
|------------------------------5/6-|
|-0-0-0-0-0-0-0-0-0-0-0-0-0-0-0----|
...............................PM
[ Tab from: http://www.guitartabs.cc/tabs/m/metallica/whiplash_tab.html ]
|---------------|(Repeat 3x)
|---------------|
|---------------|
|-8--7-6-5------|
|-6--5-4-3------|
|---------------|


|----------------------------|(repeat 4x)
|----------------------------|
|----------------------------|
|----------------------7-6-5-|
|----------------------5-4-3-|
|-0-0-0-0-0-0-0-0-0-0-0------|
.......................PM

|----------------------------------|(Repeat 4x)
|----------------------------------|
|----------------------------------|
|------------------------------7/8-|
|------------------------------5/6-|
|-0-0-0-0-0-0-0-0-0-0-0-0-0-0-0----|
...............................PM

|---------------|(Repeat 3x)
|---------------|
|---------------|
|-8--7-6-5------|
|-6--5-4-3------|
|---------------|


|-------------|
|-------------|
|-------------|
|-8-7-6-5-4-3-|
|-6-5-4-3-2-1-|
|-------------|


|-------------------|(Repeat 8x)
|-------------------|
|-------------------|
|-------------------|
|-7p5-5-7-----------|
|---------0-0-0-0-0-|


Next would b the solo but this is the easy version so im leaving it out hopefull someone else has
a way to do it and post it here... :)


|----------------------------------|(Repeat 4x)
|----------------------------------|
|----------------------------------|
|------------------------------7/8-|
|------------------------------5/6-|
|-0-0-0-0-0-0-0-0-0-0-0-0-0-0-0----|
...............................PM

|---------------|(Repeat 4x)
|---------------|
|---------------|
|-8--7-6-5------|
|-6--5-4-3------|
|---------------|


|---------|(Repeat 4x)
|---------|
|---------|
|-5-6-5-5-|
|-3-4-3-3-|
|-------0-|


|---------|
|---------|
|---------|
|---------|
|-5/6-5-5-|
|-3/4-3-3-|

                                                 *KEY*
/=Slide
p=pull off
PM=Palm mute
--------------------------------------------------------------------------------------------------
                I HOPE YOU HAVE ENJOYED THIS, THIS IS AN EASY SONG TO PLAY!






Comments