Metallica - Whiplash Chords & Tabs

 

Whiplash Chords & Tabs

Metallica Chords & Tabs

Version: 2 Type: Bass Tab 0 ratings
1 star 2 stars 3 stars 4 stars 5 stars
comments

Whiplash Bass Tab

   
mail: c_rejects@hotmail.com
band: Metallica
song: Whiplash
album: Kill Em All
year: 1983

Okey! Heres Whiplash.. Dont go crazy after playing this
song though:-P 

Tuning: Standard, just as all the other songs from Kill Em All..


Intro:
G||-------------------------------------------------------------------|
D||-------------------------------------------------------------------|
A||-7777--7777--7777--7777--7~--------7~--------7~--------7~--------7~|
E||-------------------------------------------------------------------|
[ Tab from: http://www.guitartabs.cc/tabs/m/metallica/whiplash_btab_ver_2.html ]
Main Riff:
G||----------------------------------|
D||----------------------------------|
A||----------------------------------|  x4
E||-1-000000000000000000000000-5-4-3-| 

Verse 2
G||-------------------------------------|
D||-------------------------------------|
A||-------------------------------------|
E||-1-00000000000000000000000000000000-5|

Chorus
G||---------------------------------------------------------------------|
D||---------------------------------------------------------------------|
A||-4-4-3-2----------4-4-3-2----------4-4-3-2----------4-4-3-2----------|
E||---------222222-----------222222-----------222222-----------222222---|

Solo Part:
G||----------||---------------------------------|
D||-7-5--2-1-||--7p5--5h7-------7p5--5h7--------|
A||----7-----||-----7--------------7------------|
E||----------||----------000000----------000000-|
Comments