Metallica - Wherever I May Roam Chords & Tabs

 

Wherever I May Roam Chords & Tabs

Metallica Chords & Tabs

Version: 6 Type: Tab 0 ratings
1 star 2 stars 3 stars 4 stars 5 stars
comments

Wherever I May Roam Tab

Metallica- Wherever I may roam
tabbed by:darin
e-mail:metallicaracing@aol.com

INTRO
|------------------------------------|
|----5-5-6-5----8-8-10-6----5-5-6-5--|
|------------------------------------|repeat 3 times
|----2-2-3-2----5-5-7--3----2-2-3-2--|
|------------------------------------|
|-0----------0-----------0-----------|

|-------------------------------------|
|-------------------------------------|
|---------H---------H----------H------|play twice then
|------2-2-3-2---5-5-7-5----2-2-3-2---|
|-------------------------------------|
|--0---------------------0------------|


|----------------------------------------------------------|           
|----------------------------------------------------------|            
|--2--------------------H--------H-----------------2-------|          
|--0-3-4-5-----0-1-2-3-2-3----5-5-7-5-----2-2-3-2--0-3-4-5-|then the            
|----1-2-3-------------------------------------------1-2-3-|verse
|--------------------------0-----------0-------------------|        
[ Tab from: http://www.guitartabs.cc/tabs/m/metallica/wherever_i_may_roam_tab_ver_6.html ]
|---------------------------------------------------------------------|
|---------------------------------------------------------------------|
|-------------------5---------4-----------5---------------------------|listen 4
|---0-1-2-3------3----3----2----2--5---3----3------3--2--3-----3----3-|the 
|------------2----------------------------------2--1--0--1--2--1--5-1-|timing
|------------0----------------------------------0-----------0-----3---|on these
then back to this part
|--------------------------------------------------|
|--------------------------------------------------|
|----------H----------H-----------H------2---------|
|-0-1-2-3-2-3------5-5-7-5-----2-2-3-2---0-3-4-5---|
|------------------------------------------1-2-3---|
|--------------0------------0----------------------|

|----------------------------------------------------------------------|
|----------------------------------------------------------------------|
|--------------------H----------------------H---------------------H----|
|----3------3-----3-3-5-3---2------2-----2-2-3-2-----3-----3---3-3-5-3-|
|----------------------------------------------------------------------|
|-1----1-1-----1----------0---0-0-----0-----------1----1-1---1---------|

the song just goes like that for a while...then the outro

|----------------------------------------------|
|----------------------------------------------|
|-----------H--------H---------H------2--------|
|--0-1-2-3-2-3----5-5-7-5---2-2-3-2---0-3-4-5--|
|---------------------------------------1-2-3--|
|--------------0----------0--------------------|

sorry i dont have any of the solo's
email me if you have any tabs for master of puppets or st.anger
Comments