Metallica - Wherever I May Roam Chords & Tabs

 

Wherever I May Roam Chords & Tabs

Metallica Chords & Tabs

Version: 2 Type: Tab 0 ratings
1 star 2 stars 3 stars 4 stars 5 stars
comments

Wherever I May Roam Tab

#----------------------------------PLEASE NOTE--------------------------------#
#This file is the author's own work and represents their interpretation of the#
#song. You may only use this file for private study, scholarship, or research.#
#-----------------------------------------------------------------------------#
#-- File created with Instab - http://www.pconline.com/~smcarey/instab.html --#
#-----------------------------------------------------------------------------#

Author/Artist: Metallica
Title: Wherever I May Roam
Album: Metallica
Transcribed by: Diablo
Email: thedanulman2001@hotmail.com

This is my first tab which is why its real short. It's basically a simplified 
version of the intro to Wherever I May Roam. At the bottom is the proper hard
version of the intro which I got from the Metallica tab book so it's 100% correct
[ Tab from: http://www.guitartabs.cc/tabs/m/metallica/wherever_i_may_roam_tab_ver_2.html ]
----0--0-1--0----3--3-5--1-0--0--0-1--0---------------------------------------
------------------------------------------------------------------------------
------------------------------------------------------------------------------
------------------------------------------------------------------------------
------------------------------------------------------------------------------
-0-------------0--------------------------------------------------------------
                                                                              

------------------------------------------------------------------------------
----5--5/6--5----8--8/10--6----5--5/6--5--------------------------------------
------------------------------------------------------------------------------
------------------------------------------------------------------------------
----2--2/3--2----5--5/7---3----2--2/3--2--------------------------------------
-0-------------0-------------0------------------------------------------------
                                                                              

Comments