Metallica - Wasting My Hate Chords & Tabs

 

Wasting My Hate Chords & Tabs

Metallica Chords & Tabs

Version: 3 Type: Tab 0 ratings
1 star 2 stars 3 stars 4 stars 5 stars
comments

Wasting My Hate Tab

   
Artist: Metallica
Song: Wasting My Hate
Tuning: Eb Ab Db Gb Bb Eb
Tabbed by: Metal Matt

This is one of my personal favorite songs from the Load/ReLoad era. I've 
always thought it was completely underrated. On top of that it's a fairly 
easy song to play with a cool beat and cool lyrics. So here you go...

 Riff 1A                                      End Riff 1A
|--------------------------------------------------------|
|--------------------------------------------------------|
|--------------------------------------------------------|
|--------------------------------------------------------|
|------------5h7--7--7p5----5--5------5------------------|
|--0--0--5h7-------------7--------5h7---5--5p0--3--5--7--|

 Riff 1B                                            End Riff 1B
|--------------------------------------------------------------|
|--------------------------------------------------------------|
|--------------------------------------------------------------|
|--------------------------------------------------------------|
|------------5h7--7--7p5----5--5------5------------------------|
|--0--0--5h7-------------7--------5h7---5--5p0--5--3--0--------|

 Riff A                     End Riff A
|-------------------------------------|
|-------------------------------------|
|-------------------------------------|
|-----7/9-----7/9-----7/9-----7/9--9--|
|--0--5/7--0--5/7--0--5/7--0--5/7--7--|
|-------------------------------------|

 Riff B                                          End Riff B
|----------------------------------------------------------|
|----------------------------------------------------------|
|----------------------------------------------------------|
|----------------------------------------------------------|
|-----7--7--6--5---------------------------5/7--7--5/7--7--|
|--0--------------7-7--7--6--5--5-5--5--4--3/5--5--3/5--5--|

 Riff C                End Riff C
|--------------------------------|
|--------------------------------|
|--9--9--9--9-9--10-10-10-10-10--|
|--9--9--9--9-9---9--9--9--9--9--|
|--7--7--7--7-7---8--8--8--8--8--|
|--------------------------------|

 Riff D                                            End Riff D
|------------------------------------------------------------|
|------------------------------------------------------------|
|--9--9--9--9-9--10-10-10-10-10--7--7--7--7-7----------------|
|--9--9--9--9-9---9--9--9--9--9--7--7--7--7-7--7--7--7--7-7--|
|--7--7--7--7-7---8--8--8--8--8--5--5--5--5-5--7--7--7--7-7--|
|----------------------------------------------5--5--5--5-5--|
[ Tab from: http://www.guitartabs.cc/tabs/m/metallica/wasting_my_hate_tab_ver_3.html ]
 Riff 1C                                     End Riff 1C
|-------------------------------------------------------|
|-------------------------------------------------------|
|-------------------------------------------------------|
|-------------------------------------------------------|
|------------5h7--7--7-9-7-9-9--9-7-7-7-7--7p5-5-7-5----|
|--0--0--5h7-----------------------------------------0--|

Fill 1
|-----|
|-----|
|-----|
|--2--|
|--2--|
|--0--|

 Bridge
|-----------------------------------------|
|-----------------------------------------|
|----------------------------------10-10--|
|----7-9----7-9----7-9----7-9------10-10--|
|--0-5-7--0-5-7--0-5-7--0-5-7--0-0--8--8--|
|-----------------------------------------|


Riff Order:

Riff 1A (x1) Clean
Riff 1B (x1)   |
Riff 1A (x1)   |
Riff 1B (x1)   V
Riff A (x1)  Distorted for rest of the song
Riff B (x4)
Riff C (x3)
Riff A (x1)
Riff D (x1)
Riff C (x1)
Riff A (x1)
Riff 1A (x2)
Riff 1C (x1)
Riff B (x2)
Riff C (x3)
Riff A (x1)
Riff D (x1)
Riff C (x1)
Riff A (x1)
Riff 1A (x2)
Riff 1C (x1)
Fill 1 (x1)
Bridge (x4)
Riff C (x3)
Riff A (x1)
Riff D (x1)
Riff C (x1)
Riff A (x1)
Riff 1A (x2)
Riff 1C (x1)
Fill 1 (x1)
Bridge (x1)

Lyrics:

Good Day, how do and I'll send a smile to you
Don't waste, waste your breath 
and I won't waste my hate on you

Ain't gonna waste my hate
Ain't gonna waste my hate on you
I think I'll keep it for myself

Ain't gonna give no more
Ain't got the time to help you score
I think it's time you please just save...
yourself

Good Day, how do and I'll send a smile to you
Don't waste, waste your breath 
and I won't waste my hate on you

Think you're worthy now
Think enough to even raise a brow
Had to laugh and tip that two-pronged crown

When I see my head I see my feet
I feel that blood that pumps in beat
But where the hell's my mind gone now...
Get gone now

Good Day, how do and I'll send a smile to you
Don't waste, waste your breath 
and I won't waste my hate on you

I think I'll keep it for myself

Ain't gonna waste my hate
But I'm so greedy when they say
That I ought to give it to be saved

Ain't gonna waste my hate no no
Ain't got time to waste my on you
I think I'll keep it all for myself...
For myself

Good Day, how do and I'll send a smile to you
Don't waste, waste your breath 
and I won't waste my hate on you

I think I'll keep it for myself...yea

Hate

       /  /        /  /
      /|\/|       /|\/|
     / |  |etal  / |  |att
       |  /        |  /
       |/          |/
       /           /
      /           /
Comments