Metallica - Wasting My Hate Chords & Tabs

 

Wasting My Hate Chords & Tabs

Metallica Chords & Tabs

Version: 2 Type: Tab 0 ratings
1 star 2 stars 3 stars 4 stars 5 stars
comments

Wasting My Hate Tab

#----------------------------------PLEASE NOTE---------------------------------#
#This file is the author's own work and represents their interpretation of the #
#song. You may only use this file for private study, scholarship, or research. #
#------------------------------------------------------------------------------##
#

Date: Sun, 4 Aug 1996 10:29:16 -0500
From: phernick@pclink.com (Phil Hernick)
Subject: Tab: Wasting My Hate by Metallica


Wasting My Hate - Intro
By Metallica
Load
Transcribed by Chuck Hernick
[ Tab from: http://www.guitartabs.cc/tabs/m/metallica/wasting_my_hate_tab_ver_2.html ]
Dropped "D" Tuning
E---------------------------------------------------------------------
B---------------------------------------------------------------------
G---------------------------------------------------------------------
D---------------------------------------------------------------------
A-----1h4/6-6-4-1-4-4-1-4/--------1----1h4/6-6-4-1-4-4-1-4/---------
D-1-1----------------------6-6-4-6--1-1----------------------6-6-6-4-

E---------------------------------------------------------------------
B---------------------------------------------------------------------
G---------------------------------------------------------------------
D---------------------------------------------------------------------
A-----1h4/6-6-4-1-4-4-1-4/--------1----1h4/6-6-4-1-4-4-1-4/---------
D-1-1----------------------6-6-4-6--1-1----------------------6-6-6-4-

That's it!
If anyone Knows the rest of the song please post it.


Comments