Metallica - Wasting My Hate Chords & Tabs

 

Wasting My Hate Chords & Tabs

Metallica Chords & Tabs

Version: 3 Type: Bass Tab 0 ratings
1 star 2 stars 3 stars 4 stars 5 stars
comments

Wasting My Hate Bass Tab

Artist: Metallica
Song: Wasting My Hate
Tabbed By: Steve Earle

INTRO
The first bit of the intro is done by just the lead guitar, the bass comes in with 
the drums at this part:

G-----------------------------------
D-----------------------------------
A---5-7----5-7----5-7----5-7----5-7-
E-0------0------0------0------0-----

KICK ASS RIFF

G----------------------------------------------
D----------------------------------------------
A-----7-7-6-5----------------------------------
E-0-0----------0-7-7-6-5--0-5-5-4-3-5-5--3-5-5-

VERSE (PART 1)

G---------------------------------------------------
D---------------------------------------------------
A-7-7-7-7-8-8-8-8--7-7-7-7-8-8-8-8--7-7-7-7-8-8-8---
E---------------------------------------------------

G-----------------------------------
D-----------------------------------
A---5-7----5-7----5-7----5-7----5-7-
E-0------0------0------0------0-----

VERSE (PART 2)
[ Tab from: http://www.guitartabs.cc/tabs/m/metallica/wasting_my_hate_btab_ver_3.html ]
G------------------------------------------------
D------------------------------------------------
A-7-7-7-7-8-8-8-8-5-5-5-5-7-7-7-8--7-7-7-7-8-8-8-
E------------------------------------------------

G-----------------------------------
D-----------------------------------
A---5-7----5-7----5-7----5-7----5-7-
E-0------0------0------0------0-----

CHORUS

G-----------------------------------------
D-----------------------------------------
A----------7---------5--------------------
E-0-----------------------------5-5-5---7-

BREAK AND END RIFF

G--------------------------
D--------------------------
A--5-7--5-7--5-7--5-7--5-8-
E-0----0----0----0----0----

SONG ORDER FOR BASS

INTRO (1X)
KICK ASS RIFF (2X)
VERSE PART 1 (1X)
VERSE PART 2 (1X)
CHORUS (2X)
KICK ASS RIFF (2X)
VERSE PART 1 (1X)
VERSE PART 2 (1X)
CHORUS (2X)
BREAK AND END RIFF (4X)
VERSE PART 1 (1X)
VERSE PART 2 (1X)
CHORUS (2X)
BREAK AND END RIFF (1X)

Note that all these # of times things are played are just for bass, there are times the 
guitar is playing by itself without the bass, listen to the song to get it right.
Comments