Metallica - Wasting My Hate Chords & Tabs

 

Wasting My Hate Chords & Tabs

Metallica Chords & Tabs

Version: 2 Type: Bass Tab 0 ratings
1 star 2 stars 3 stars 4 stars 5 stars
comments

Wasting My Hate Bass Tab

   
#----------------------------------PLEASE NOTE---------------------------------#
#This file is the author's own work and represents their interpretation of the #
#song. You may only use this file for private study, scholarship, or research. #
#------------------------------------------------------------------------------#

Bass Tab transcription by Birey(Bnbbros@bistek.net.tr) 

Here is one of my first trials of bass tab transcription:Wasting My Hate
from
the Load album of Metallica, one of my favourites from their last album, a 
song which sounds to me like the old Metallica's songs.


All text refers to the tab ABOVE it. Any comments, suggestions, or errors
refering to the tab below that should be brought to my attention, e-mail
me.

Tab explanations
-----------------------------------------------
h   hammer-on          |   R   rest 
p   pull off           |   :   repeat 
~   vibrato            |            
/   slide up           |             
-----------------------------------------------

G          
D        Tune down 1/2 step the E-string (or buy a 5-string Bass ;))
A
E -> Eb

WASTING MY HATE (Hetfield,Ulrich,Hammett)
  ( From the album "Load" )

G---------------------------------------------------------------------------
-
D----------------------h--------------p-------------------------------------
-
A---------------h-----4-6~~~~---6----6-4-------4~~~~--4----h----4---------p-
-
Eb--0----0-----5-7--------------------------7-------------5-7------5~~~~-5-0
-
   Intro

                    
1~~~~~~~~~~~~~~~~~~~~~~~~~~~~~~~~~~~~~~~~~~~~~~~~~~~~~~~
-------------------|--------------------------------------------------------
-
-------------------|----------h--------------p------------------------------
-
---h---------------|---h-----4-6~~~~---6----6-4-------4~~~~--4----h----4----
-
--3-5--7---0----0--|--5-7--------------------------7-------------5-7--------
-


~~~~~~~~~~~~~~~~~~~~ 
2~~~~~~~~~~~~~~~~~~~~~~~~~~~~~~~~~~~~~~~~~~~~~~~~~~~~~~
--------------------|-------------------------------------------------------
-
-------------------.|---------------------h--------------p------------------
-
-------------------.|--------------h-----4-6~~~~---6----6-4-------4~~~~--4--
-
--5~~~~-5---5--3----|--0----0-----5-7--------------------------7------------
-


~~~~~~~~~~~~~~~~~~~~~~~~~~~~~~~~~~~~
------------------------------------|---------------------------------------
-
------------------------------------|---------------------------------------
-
---h----4---------p-----h-----------|------4--6-------4--6-------4--6-------
-
--5-7------5~~~~-5-0---3-5--7---0---|---5----------5----------5----------5--
-
                       end of intro   Faster!

--------------------|-----|-----|-------------------------------------------
-
--------------------|--R--|--R--|.------------------------------------------
-
--4--6-------4--6---|-----|-----|.----------------5-----4-------------------
-
----------5---------|-----|-----|--0--0--0--0--0-----0-----7--7--7--7--7--7-
-
                Hate!              fig. A


----------------------------------------------------------|-----------------
-
---------------------------------------------------------.|-----------------
-
---------------------------------------------------------.|-----------------
-
--6--5--5--5--5--5--0--5--4--0--3--3/5--5--0--3/5--5--0---|--0--0--0--0---0-
-
                                                            Ain't gonna
waste

----------------------------------------------------------------------------
-
----------------------------------------------------------------------------
-
----------------------------------------------------------------------------
-
--0--0--0---0--0--0--0---0--0--0--0---0--0--0--0---0--0--0--0---0--0--0--0--
-

[ Tab from: http://www.guitartabs.cc/tabs/m/metallica/wasting_my_hate_btab_ver_2.html ]
----------------------------------------------------------------------------
-
----------------------------------------------------------------------------
-
------------------------------------------------------------4--6-----4--6---
-
--0--0--0--0---0--0--0--0---0--0--0--0---0--0--0--0--0---5--------5---------
-


------------------------------|---------------------------------------------
-
------------------------------|---------------------------------------------
-
-----4--6-----4--6-----4--6---|---------------------------------------------
-
--5--------5--------5---------|--0--0--0--0---0--0--0--0---0--0--0--0---0--0
-


----------------------------------------------------------------------------
-
----------------------------------------------------------------------------
-
---------4--4--4--4---4--4--4--4--------------------------------------------
-
--0--0-----------------------------4--4--4--4---4--4--4--4---0--0--0--0---0-
-


----------------------------------------------------------------------------
|
----------------------------------------------------------------------------
|
-------------------------------4--6-----4--6-----4--6-----4--6-----4--6-----
|
--0--0--0---0--0--0--0---0--5--------5--------5--------5--------5-----------
|


----------------------------------------------------------------------------
-
---------------------h--------------p---------------------------------------
-
--------------h-----4-6~~~~---6----6-4-------4~~~~--4----h----4---------p---
-
--0----0-----5-7--------------------------7-------------5-7------5~~~~-5-0--
-
(intro riff again)

----------------------------------------------------------------------------
-
----------------------------h--------------p--------------------------------
-
---h-----------------h-----4-6~~~~---6----6-4-------4~~~~--4----h----4------
-
--3-5---7---0---0---5-7--------------------------7-------------5-7------5~~~
~


----------------------------------------------------------------------------
-
---------------------------------h--------------p---------------------------
-
---p-----h----------------h-----4-6~~~~---6----6-4-------4~~~~--4----h----4-
-
--5-0---3-5---7---0------5-7--------------------------7-------------5-7-----
-


-------------------------------------|--------------------------------------
-
-------------------------------------|--------------------------------------
-
---------p-----h---------------------|--------------------------------------
-
--5~~~~-5-0---3-5---7---0------------|--------------------------------------
-
                       (let ring)   *     (repeat all, from fig. A to *)
                                   

-------------------|----------------------------------------------9---------
|
-------------------|.---------------------------------------------9--------.
|
-------------------|.------4--6-----4--6-----4--6-----4--6--------7--------.
|
--0----------------|-----5-------5--------5--------5--------5--5------------
|
 (let ring)   Hate!                                               (x4
times)
   

----------------------------------------------------------------------------
-
----------------------------------------------------------------------------
-
----------------------------------------------------------------------------
-
----------------------------------------------------------------------------
-
 (repeat from the figure beginning with "Ain't gonna waste.." to *)


-------------------|----------------------------------------------9---------
|
-------------------|----------------------------------------------9---------
|
-------------------|-------4--6-----4--6-----4--6-----4--6--------7---------
|
--0----------------|-----5-------5--------5--------5--------5--5------------
|
 (let ring)   Yeah!                                                 Hate!  





Comments