Metallica - Valley Of Misery Chords & Tabs

 

Valley Of Misery Chords & Tabs

Metallica Chords & Tabs

Version: 2 Type: Tab 0 ratings
1 star 2 stars 3 stars 4 stars 5 stars
comments

Valley Of Misery Tab

   
Metallica
Valley of misery

The song varies a little but this is the basic progression.
The second solo is a little hard to figure out,
but i'm working on it.

Tuning:
e
B
G
D
A
e

Intro riff:
|-----------------------------------------------------------------|
|--------------------------------0-----------------------------0--|
|------0-------0-------0-------0-------0-------0-------0-----0----|
|----4---4---4---4---4---4---4-------4-------4---4---4------------|
|--7-------3-----------------------7-----0-3-------------2--------|
|------------------3-------2-----------------------3-------2------|

Intro riff 2:
|-------------------------------------------------------------------------------|
|------------5---3----------------------------5---3-----------------------------|
|----------4---4---5-0-4--4h5-4-2-4-2-0-----4---4---5-0-4--4h5-4--4h5-4--4h5-4--|
|---5-4\-2~-----------------------------4-2-------------------------------------|
|-------------------------------------------------------------------------------|
|-------------------------------------------------------------------------------|

|-----------------------------/3-2-0~-----------------------------|
|----5---3-----------------------------5---3----------------------|
|--4---4---5-0-4--4h5-4-2-0----------4---4---5-0-4----------------|
|---------------------------4----------------------4-5--2-4--0-2--|
|-----------------------------------------------------------------|
|-----------------------------------------------------------------|
[ Tab from: http://www.guitartabs.cc/tabs/m/metallica/valley_of_misery_tab_ver_2.html ]
Verse to Chorus bridge:
|------------------------------------------------------------------|
|--------------------------------0---------------------------------|
|------0-------0-------0-------0---9------5----4-------------------|
|----4---4---4---4---4---4---4-----9------5----4----5---5---4---2--|
|--7-------3-----------------------7--7-5-3--0-2----5---5---4---2--|
|------------------3-------2----------------------xx3-xx3-xx2-xx0--|

Chorus:
|----------------------------------------------------------------------------------|
|----------------------------------------------------------------------------------|
|------5----------------------------5------------9-9--------5----------------------|
|------5------5----5-4---5-4-2------5------5---5-9-9-2------5------5----5-4---5-4--|
|--x-x-3------5----5-4---5-4-2--x-x-3------5---5-7-7-2--x-x-3------5----5-4---5-4--|
|---------x-x-3--x-3-2-x-3-2-0---------x-x-3-x-3-----0---------x-x-3--x-3-2-x-3-2--|

|------------------------------|
|------------------------------|
|--------------------4---------|
|---------0-2-0------4---------|
|--2--2-4-------4--xx2---------|
|-----------------------3-2-0--|


First Solo:
|------------------------------------------------------------------------------|
|------------------------------------------------------------------------------|
|---------------------------------------------------------4-----4-7h9-7-4h7-4--|
|--0h2--2-4-5--4-2-0--2-0----0----------------2-4-5-2-4-5---4-5----------------|
|-------------------------2----2-0--2-0----------------------------------------|
|---------------------------------------2--0-----------------------------------|

|---------------------------------------------------------------------------------|
|----5-7-8-7h8p7-5----------------------------------------------------------------|
|--4---------------7--5h7-5-4---------------4-5-4h5p4------7h9-7-5h7-5-4----------|
|-----------------------------7b-7-5------7-----------7-5----------------7-7-5----|
|------------------------------------7--7--------------------------------------7--|
|---------------------------------------------------------------------------------|
Comments