Metallica - Valley Of Misery Chords & Tabs

 

Valley Of Misery Chords & Tabs

Metallica Chords & Tabs

Version: 1 Type: Tab 0 ratings
1 star 2 stars 3 stars 4 stars 5 stars
comments

Valley Of Misery Tab

-------------------------------------------------------------------------------
	         Valley of Misery - Metallica
-------------------------------------------------------------------------------

By: Jonathan Valencia (WWi)
[ Tab from: http://www.guitartabs.cc/tabs/m/metallica/valley_of_misery_tab.html ]
e|---------------------------------------------------------------------------|
B|----------------------------------------------------------------------0----|
G|----------0-------------------0--------------0-------------------0---------|
D|-----4---------4---------4--------------4---------4---------4--------------|
A|--------------------3------------------------------------------------------|
E|-0---------------------------------3------------------2--------------------|
Comments